Song name
# A B C D E F G H I J K L M N O P Q R S T U V W X Y Z

Misc Unsigned Bands - Brian Dunne - The Trouble Im In tab

------------------------------------------------------------------
               The trouble I'm in - Brian Dunne
------------------------------------------------------------------
Tabbed by: Rocio
Tuning: Standard

************************************
| /   Slide up
| T   Use your thumb
| x   Mute note
************************************



       G      D     Em    C
e|------------------------------------|
B|-----0------3-----0------1----------|
G|-----0------2-----0------0----------|
D|-----0------0-----2------2----------|
A|-----x------0-----2------3----------|
E|-----3------------0-----------------|
       T     

      G     D       C                G
e|--------------------------------------------|
B|----0------3------1------1----------0-------|
G|----0------2------2------2----------0-------|
D|----0------0------0/2----0----------0-------|
A|----x------0------3------3----3-----x-------|
E|----3-------------------------------3-------|
      T                               T


Lyrics + Chords:

Oh mama I've seen you don't know the trouble I'm in
Oh mama I'm leaving before the rain is coming in
Oh mama I'm leaving before the rain is coming in

G D C G
         G             D
I'm so tired of this city
         Em            C
I'm so tired of this town
    G             D            C           G    
Oh mama please forgive if I'm hurting you now

         G            D
Pack my bag for the leaving
        Em            C
Pack my bag for the road
         G                D
And i'm heading out this evening
         C        G
'Cause I have to go

     G        D             Em                   C
Oh mama I've seen you don't know the trouble I'm in
     G        D                 C              G          
Oh mama I'm leaving before the rain is coming in
     G        D                 C              G
Oh mama I'm leaving before the rain is coming in


         G                  D
It's so bad the things I've done 
                 Em                  C
you wouldn't believe that it's your son
    G             D
Oh mama please believe me 
                     C       G
I've never meant to hurt no one

           G              D
Just wound up (worse-off?) places
             Em              C
I just wound up worse-off friends
          G               D
And I'm heading out this evening
         C                G     
and I'm never coming back again


     G        D             Em                   C
Oh mama I've seen you don't know the trouble I'm in
     G        D                 C              G          
Oh mama I'm leaving before the rain is coming in
     G        D                 C              G
Oh mama I'm leaving before the rain is coming in
Tap to rate this tab
# A B C D E F G H I J K L M N O P Q R S T U V W X Y Z