Song name
# A B C D E F G H I J K L M N O P Q R S T U V W X Y Z

Misc Unsigned Bands - Bunji Garlin - Fire Fi Dem tab

-----------------------------------------------------------------------------
                             Fire Fi Dem - Bunji Garlin
-----------------------------------------------------------------------------
Tabbed by: ElManu
E-mail: manuel.rammler@gymbsb.net

Tuning: E A D G H e

This is the main riff of the song. You can variate in rhythm, this is how I play it:

          Bb5                             
e|-------|-------------------------------|-------------------------------|
H|-------|-------------------------------|-------------------------------|
G|-------|-------------------------------|-------------------------------|
D|------6|8-8-8-6-------6-8-8-8-6-------6|8-8-8-6-------6-8-8-8-6--------|
A|--6-8--|--------8-8-8-----------8---8--|--------8-8-8-----------8------|
E|-------|-------------------------------|-------------------------------|

          Eb5                             Bb5
e|-------|-------------------------------|-------------------------------|
H|-------|-------------------------------|-------------------------------|
G|------6|8-8-8-6-------6-8-8-8-6--------|-------------------------------|
D|--6-8--|--------8-8-8-----------8-----6|8-8-8-6-------6-8-8-8-6--------|
A|-------|--------------------------6-8--|--------8-8-8-----------8------|
E|-------|-------------------------------|-------------------------------|

          F5              Eb5             Bb5
e|-------|-------------------------------|-------------------------------|
H|-------|6---6-------6------------------|-------------------------------|
G|----6-8|----------------8-8-6-8---8-8-6|-------------------------------|
D|--8----|-------------------------------|8-8-8-6-------6-8-8-8-6--------|
A|-------|-------------------------------|--------8-8-8-----------8------|
E|-------|-------------------------------|-------------------------------|

Repeat this over the song.

Please contact me, if you want to comment something!

************************************

| /   slide up
| \   slide down
| h   hammer-on
| p   pull-off
| ~   vibrato
| +   harmonic
| x   Mute note
| b   Bend
| pb  Pre-bend
| br  Bend release
| pbr Pre-bend release
| brb Bend release bend

************************************
Tap to rate this tab
 
# A B C D E F G H I J K L M N O P Q R S T U V W X Y Z