Song name
# A B C D E F G H I J K L M N O P Q R S T U V W X Y Z

Misc Unsigned Bands - Dj Fortify - Pewdiepies Song tab

-------------------------------------------------------------------------------
                             Pewdiepie's Song - DJ Fortify
-------------------------------------------------------------------------------
Tabbed by:gaffers1996
E-mail:gaffers1996@gmail.com

Tuning:Standard


Intro/Verse
e|------------------------------------------------------------------------|
B|-999-999---------------161616-161616-111111-111111-x6-------------------|
G|---------101010-101010--------------------------------------------------|
D|------------------------------------------------------------------------|
A|------------------------------------------------------------------------|
E|------------------------------------------------------------------------|

Chorus
e|-------------------------232119--------------------16162123-------------|
B|-17b17b-------------19h21------181820b-66885----------------------------|
G|-------------111114b------------------5--------------------------x4-----|
D|------------------------------------------------------------------------|
A|-------888998-----------------------------------------------------------|
E|--------------------------------------------3000000---------------------|

Bridge
e|------------------------------------------------------------------------|
B|------------------------------------------------------------------------|
G|------------------------------------------------------------------------|
D|------------------------------------------------------------------------|
A|------------------------------------------------------------------------|
E|-0--0--0-000-001-123-x8-0--3231--2330--3440--2330-x2--------------------|
                                                 Play Verse Over The Top Of This

Breakdown
e|------------------------------------------------------------------------|
B|-1414-141414-14--------------1616-161616-161111-111111-11---------------|
G|---------------1010-101010-10-----------------------------x8------------|
D|------------------------------------------------------------------------|
A|------------------------------------------------------------------------|
E|------------------------------------------------------------------------|

e|------------------------------------------------------------------------|
B|-9-9-------16-16-11-11-9-9-------16-16-11-1111--------------------------|
G|-----10-10-----------------10-10---------------x2-----------------------|
D|------------------------------------------------------------------------|
A|------------------------------------------------------------------------|
E|------------------------------------------------------------------------|

e|------------------------------------------------------------------------|
B|-9---------------------16-----------------------------------------------|
G|-----------10-10101215--------------------------------------------------|
D|---------------------------------------------x4-------------------------|
A|------------------------------------------------------------------------|
E|---0-0-2200---------------4-10101010--1-1130----------------------------|


Intro/Verse
Chorus
Bridge
Breakdown
Chorus x2 instead of x4
Tap to rate this tab
# A B C D E F G H I J K L M N O P Q R S T U V W X Y Z