Song name
# A B C D E F G H I J K L M N O P Q R S T U V W X Y Z

Misc Unsigned Bands - Speed Of Dark - Gullible tab

         *+.+*iNtRo*+.+*
|-----------------------------|
|-----------------------------|
|-----------------------------|   .,.,.,.,.,.
|------9----9----10---10---10-|   rEpEaT oNcE
|---00---00---00----00---00---|   `'`'`'`'`'`
|-----------------------------|

|-----------------------------|
|-----------------------------|
|-----------------------------|
|----9----9------9----9-------|
|--77--77---7777---77---77----|
|-----------------------------|

|-------------------------------------------|
|-------------------------------------------|
|-------------------------------------------|    .,.,.,.,.,.
|--9-9-9---10-10-10-10-10-10-10-10-10-10-10-|    rEpEaT oNcE
|--8-8-8----8--8--8--8--8--8--8--8--8--8--8-|    `'`'`'`'`'`
|-------------------------------------------|

|-------------------|
|-------------------|
|-------------------|
|---9-9-9---10--12--|
|---7-7-7----8--10--|
|-------------------|


WriTTeN bY kiSs aNd kriSteN 

*+. SpEeD oF dArK.+*
neW bAnd frOm nEw jErsEy...tAbS also oN  
http://punkhardcore.com/tabs/index.cfm?alpha=s
Tap to rate this tab
# A B C D E F G H I J K L M N O P Q R S T U V W X Y Z