Song name
# A B C D E F G H I J K L M N O P Q R S T U V W X Y Z

Misc Unsigned Bands - 4sf - Rembering You tab

intro
5b------------------------------
----7--5--7--5--7-7b--5--3--5--3 
--------------------------------
--------------------------------
--------------------------------
--------------------------------

5b------------------------------
----7--5--7--5--7-7b--5--3--5--3 
--------------------------------
--------------------------------
--------------------------------
--------------------------------

------------------------------------
------------------------------------
------------------------------------
------------------------------------ 
--12-12--xxx--7-7-7--9-9--xxx--5-5-5  
--12-12--xxx--7-7-7--9-9--xxx--5-5-5   
--10-10--xxx--5-5-5--7-7--xxx--3-3-3

------------------------------------
------------------------------------ 
--12-12--xxx--7-7-7--9-9--xxx--5-5-5  
--12-12--xxx--7-7-7--9-9--xxx--5-5-5   
--10-10--xxx--5-5-5--7-7--xxx--3-3-3
Tap to rate this tab
 
# A B C D E F G H I J K L M N O P Q R S T U V W X Y Z