Song name
# A B C D E F G H I J K L M N O P Q R S T U V W X Y Z

Misc Unsigned Bands - Inspired - Follow Me tab

inro-fig1

e|---------------------------------------------------------------------------|
B|---------------------------------------------------------------------------|
G|--5-5----------------------------------------------------------------------|
D|--5-5-----------5-5----------7-7---------3-3-------------------------------|
A|--3-3--5-7-5-3--5-5----------7-7---------3-3-------------x2----------------|
E|----------------3-3-5-7-5-3--5-5-7-9-7-5-1-1-3-5-3-1-----------------------|
verse-fig2

e|---------------------------------------------------------------------------|
B|----------------------------)----------------------------------------------|
G|--5-------------------------)----------------------------------------------|
D|--5-x4-3-----7----5---------)--x4------------------------------------------|
A|--3----3-x4--7-x4-5-x4------)----------------------------------------------|
E|-------1-----5----3---------)----------------------------------------------|

chorus-fig3

e|---------------------------------------------------------------------------|
B|---------------------------------------------------------------------------|
G|--5-5----------------------------------------------------------------------|
D|--5-5--5-5--7-7--3-3-------------------------------------------------------|
A|--3-3--5-5--7-7--3-3-------------------------------------------------------|
E|-------3-3--5-5--1-1-------------------------------------------------------|

intro-fig1
verse-fig2 x1.5
chorus-fig3
verse-fig2
chorus-fig3
fig1
chorus x2
Tap to rate this tab
 
# A B C D E F G H I J K L M N O P Q R S T U V W X Y Z