Song name
# A B C D E F G H I J K L M N O P Q R S T U V W X Y Z

Misc Unsigned Bands - Rewind The Crisis - The Machine tab

cool band I found, pretty underground
SAME ON BASS

intro
e| --------------------------------------------|
B| --------------------------------------------|
G| --------------------------------------------|
D| --------------------------------------------|
A| --------------------------------------------|
E | 5-5-5-5-5-5-5-5-5-5-5-5-2-2-2-2-3-3-3-3----|   x2


chorus
e| ---------------------------------|
B| ---------------------------------|
G| ---------------------------------|
D| ---------------------------------|
A| ---------------------------------|
E | 5-5-2-2-5-5-5-14-14-14-14-14----|   x4


verse
e| --------------------------------------------|
B| --------------------------------------------|
G| --------------------------------------------|
D| --------------------------------------------|
A| --------------------------------------------|
E | 5-5-5-5-5-5-5-5-5-5-5-5-2-2-2-2-3-3-3-3----|   x4


chorus
e| ---------------------------------|
B| ---------------------------------|
G| ---------------------------------|
D| ---------------------------------|
A| ---------------------------------|
E | 5-5-2-2-5-5-5-14-14-14-14-14----|   x4


pre-chorus
e| --------------------------------------------------|
B| --------------------------------------------------|
G| --------------------------------------------------|
D| --------------------------------------------------|
A| --------------------------------------------------|
E | 5-5-5-5-5-5-5-5-5-5-5-5-7-7-7-7-7-7-7-7-7-7-7-7--|

e| ---------------------------------------------------------------|
B| ---------------------------------------------------------------|
G| ---------------------------------------------------------------|
D| ---------------------------------------------------------------|
A| ---------------------------------------------------------------|
E | 9-9-9-9-9-9-9-9-9-9-9-9-10-10-10-10-10-10-10-10-10-10-10-10---|


verse
e| --------------------------------------------|
B| --------------------------------------------|
G| --------------------------------------------|
D| --------------------------------------------|
A| --------------------------------------------|
E | 5-5-5-5-5-5-5-5-5-5-5-5-2-2-2-2-3-3-3-3----|   x2


chorus
e| ---------------------------------|
B| ---------------------------------|
G| ---------------------------------|
D| ---------------------------------|
A| ---------------------------------|
E | 5-5-2-2-5-5-5-14-14-14-14-14----|   x4


bridge thing
e| -------------------------------------------|
B| -------------------------------------------|
G| -------------------------------------------|
D| -------------------------------------------|
A| -------------------------------------------|
E | 5-5-5-5-5-5-5-5-5-5-5-5-2-2-2-2-3-3-3-3---|  x2

e| --------------------------------------------------|
B| --------------------------------------------------|
G| --------------------------------------------------|
D| --------------------------------------------------|
A| --------------------------------------------------|
E | 5-5-5-5-5-5-5-5-5-5-5-5-7-7-7-7-7-7-7-7-7-7-7-7--|

e| ---------------------------------------------------------------|
B| ---------------------------------------------------------------|
G| ---------------------------------------------------------------|
D| ---------------------------------------------------------------|
A| ---------------------------------------------------------------|
E | 9-9-9-9-9-9-9-9-9-9-9-9-10-10-10-10-10-10-10-10-10-10-10-10---|


chorus
e| ---------------------------------|
B| ---------------------------------|
G| ---------------------------------|
D| ---------------------------------|
A| ---------------------------------|
E | 5-5-2-2-5-5-5-14-14-14-14-14----|   x8
Tap to rate this tab
# A B C D E F G H I J K L M N O P Q R S T U V W X Y Z