Song name
# A B C D E F G H I J K L M N O P Q R S T U V W X Y Z

Misc Unsigned Bands - Groove Pipe - Ohio Daze tab

Song:Ohio Daze
Album:N/A
Artist:Groove Pipe
Tuning:Standard(EADGBE)

Intro x4(Clean)
       U       U
E----0-0-----0-0-------------|
B----0-0-----0-0-------------|
G----1-1-----1-1-------------|
D-2~-2-2-2-2-2-2--55-5--44-4-|
A-2~-----2-2------55-5--44-4-|
E-0~-----0-0------33-3--22-2-|
         . .
Verse 1(Clean)
       U       U
E----0-0-----0-0-------------|
B----0-0-----0-0-------------|
G----1-1-----1-1-------------| X3
D-2~-2-2-2-2-2-2--55-5--44-4-|
A-2~-----2-2------55-5--44-4-|
E-0~-----0-0------33-3--22-2-|
         . .
       U       U
E----0-0-----0-0--------|
B----0-0-----0-0--------|
G----1-1-----1-1--------|
D-2~-2-2-2-2-2-2--55-77-|
A-2~-----2-2------55-77-|
E-0~-----0-0------33-55-|
         . .
Pre-Chorus 1(Distortion)
E-----------|
B-----------|
G-----------|
D-3~~--2~~--|
A-3~~--2~~--|
E-1~~--0~~--|

Chorus 1
E--------------------|
B--------------------|
G--------------------|
D-8----7----3----2---|
A-8x8--7x8--3x8--2x8-|
E-6----5----1----0---|

E-----------------------|
B-----------------------|
G-----------------------|
D-8----7----5----4---4X-|
A-8x8--7x8--5x8--4x8-4X-|
E-6----5----3----2---2X-|
                 .
Post-Chorus 1(Clean)
E-------------|
B-------------|
G-------------|
D-----0-------|
A-0h2---2p0---|
E-----------0-|

Verse 2(Clean)
       U       U
E----0-0-----0-0---------------|
B----0-0-----0-0---------------|
G----1-1-----1-1---------------|  X5
D-2~-2-2-2-2-2-2--55-5--44-4---|
A-2~-----2-2------55-5--44-4---|
E-0~-----0-0------33-3--22-2---|
         . .
       U       U
E----0-0-----0-0--------|
B----0-0-----0-0--------|
G----1-1-----1-1--------|
D-2~-2-2-2-2-2-2--55-77-|
A-2~-----2-2------55-77-|
E-0~-----0-0------33-55-|
         . .
Pre-Chorus 2(Distortion)
E-----------|
B-----------|
G-----------|
D-3~~--2~~--|
A-3~~--2~~--|
E-1~~--0~~--|

Chorus 2
E--------------------|
B--------------------|
G--------------------|
D-8----7----3----2---|
A-8x8--7x8--3x8--2x8-|
E-6----5----1----0---|

E-----------------------|
B-----------------------|
G-----------------------|
D-8----7----5----4---4X-|
A-8x8--7x8--5x8--4x8-4X-|
E-6----5----3----2---2X-|
                 .
Post-Chorus 3(Clean)
E-------------|
B-------------|
G-------------|
D-----0-------|
A-0h2---2p0---|
E-----------0-|

Verse 3(Clean)
       U       U
E----0-0-----0-0-------------|
B----0-0-----0-0-------------|
G----1-1-----1-1-------------|
D-2~-2-2-2-2-2-2--55-5--44-4-|
A-2~-----2-2------55-5--44-4-|
E-0~-----0-0------33-3--22-2-|
         . .
       U       U
E----0-0-----0-0--------|
B----0-0-----0-0--------|
G----1-1-----1-1--------|
D-2~-2-2-2-2-2-2--55-77-|
A-2~-----2-2------55-77-|
E-0~-----0-0------33-55-|
         . .
Pre-Chorus 3(Distortion)
E-----------|
B-----------|
G-----------|
D-3~~--2~~--|
A-3~~--2~~--|
E-1~~--0~~--|

Chorus 3
E--------------------|
B--------------------|
G--------------------|
D-8----7----3----2---|
A-8x8--7x8--3x8--2x8-|
E-6----5----1----0---|

E-----------------------|
B-----------------------|
G-----------------------|
D-8----7----5----4---4X-|
A-8x8--7x8--5x8--4x8-4X-|
E-6----5----3----2---2X-|
                 .

Key:
H=Hammer On
P=Pull Off
U=Upstroke
.=Palm Mute
X
X=Cut Off Immediately
X

Now For A Little History About The Band:
Formed in Waynesburg, Ohio (2004), Groove Pipe is Chad (Lead Vocals/lead Guitar), Matt
(Bass Guitar) and Brian (Drums). In that time, they have released two albums.
One is a six song EP, The Fall (2007).
The other is a full-length album, Hangman (2008).
The group is known for writing their own music,
but they do a cover of The Rolling Stones song, "Dead Flowers".
The cover showcases their instrumental musical talent as well as their vocals.
If You Wanna Listen To Some Of Their Music including the song i tabbed out

Heres A Link to Their Facebook Page:http://www.facebook.com/pages/Groove-Pipe/118016138232064
Tap to rate this tab
# A B C D E F G H I J K L M N O P Q R S T U V W X Y Z