Song name
# A B C D E F G H I J K L M N O P Q R S T U V W X Y Z

Misc Unsigned Bands - Her Parents - Sir Puke tab

Sir Puke
Her Parents - http://herparents.bandcamp.com/
jjjddd

EADGBe
e|-------------------------------------------------------------------------------------|
B|-------------------------------------------------------10-11-12---14bu-11-12---------|
G|--7---10-10-8---11-11-9--11--12-------------9-10-11-7------------------------10~-----|
D|--------------------------------11--0-12-11------------------------------------------|
A|--5----------------------------------------------------------------------------------|
E|-------------------------------------------------------------------------------------|
                                                (* press on the metal part of fret)
e|-----------------------------12--10-11-10-9-10-11------------------------------------|
B|---------------------------------------------------14bu-12--9-10-9-10-9-10-x7bu-0----|
G|--10--9-10-9--8-------------------------------------------------------------------9--|
D|----------------10-9-8-7~~-----------------------------------------------------------|
A|-------------------------------------------------------------------------------------|
E|-------------------------------------------------------------------------------------|

e|----------------------------------------------------|
B|----------------7-5-8bu--5-0-5bu--3-0-2bu--7-7------|
G|------4-5-5-0-5----------------------------1010-----|
D|--4h5-----------------------------------------------|
A|----------------------------------------------------|
E|----------------------------------------------------|
Tap to rate this tab
# A B C D E F G H I J K L M N O P Q R S T U V W X Y Z