Song name
# A B C D E F G H I J K L M N O P Q R S T U V W X Y Z

Misc Unsigned Bands - Her Parents - Nietzsche tab

Nietzsche
Her Parents [BUY THEIR ALBUM, ITS REAL CHEAP YO]
http://herparents.bandcamp.com/
https://www.facebook.com/herparentsband
http://herparents.tumblr.com/

tabbed by jjjddd

EADGBe

intro                                                     (just tremolo pick upwards from 10
                                                         and have a real fun time messing around)
e|-------------------------------------------------------------------------------------|
B|-------------------------------------------------------------------------------------|
G|--101010-101010-101010-101010--8-8-8-8-8-8-8-8-8-7-7-6-6-5-5\--10t/------------------|
D|--101010-101010-101010-101010--9-9-9-9-9-9-9-9-9-8-8-7-7-6-6\------------------------|
A|--8-8-8--8-8-8--8-8-8--8-8-8---9-9-9-9-9-9-9-9-9-8-8-7-7-6-6\------------------------|
E|-------------------------------7-7-7-7-7-7-7-7-7-6-6-5-5-4-4\------------------------|

verse
e|------------------------------------------------------------------|
B|------------------------------------------------------------------|
G|---------------------------------------------------------x-x-x----|
D|----------------1-2-1-------------------------1-2-1------x-x-x----| x4
A|--------0-2--2--------3-2--2b---------0-2--2--------3-2--x-x-x----|
E|--0-1-2-------------------------0-1-2--------------------x-x-x----|
    * * * * *     * * * * *       * * * * *     * * * * * 7th fret (changes sometimes)
chorus 
e|------------------------------------|
B|------------------------------------|
G|------------------------------------|
D|-2--2-------------2--2--------------| x2
A|-2--2----5--8-7---2--2----5--8-7----|
E|-0--0----3--6-5---0--0----3--6-5----|
 NIETZSCHE        NIETZSCHE 

solo (sorta) (rhythm guitar plays verse riff lower in the mix)         
e|-----------------------------------------------------------|
B|--loads-of-tremolo-picking-on-top-3-strings----------------|
G|----from-like-8th-fret-upwards-----------------------------|
D|------(too-random-to-tab,-sorry-:c)------------------------|
A|-----------------------------------------------------------|
E|-----------------------------------------------------------|

verse
e|------------------------------------------------------------------|
B|------------------------------------------------------------------|
G|---------------------------------------------------------x-x-x----|
D|----------------1-2-1-------------------------1-2-1------x-x-x----| x4
A|--------0-2--2--------3-2--2b---------0-2--2--------3-2--x-x-x----|
E|--0-1-2-------------------------0-1-2--------------------x-x-x----|
    * * * * *     * * * * *       * * * * *     * * * * * 7th fret (changes sometimes)

outro
e|-----------------------------------------------------------------|
B|-----------------------------------------------------------------|
G|--101010-101010-101010-101010--8-8-8-8-8-8-8-8-8-7-7-6-6-5-5\----|
D|--101010-101010-101010-101010--9-9-9-9-9-9-9-9-9-8-8-7-7-6-6\----|
A|--8-8-8--8-8-8--8-8-8--8-8-8---9-9-9-9-9-9-9-9-9-8-8-7-7-6-6\----|
E|-------------------------------7-7-7-7-7-7-7-7-7-6-6-5-5-4-4\----|

e|------------------------------------|
B|------------------------------------|
G|------------------------------------|
D|-2--2-------------2--2--------------| x4
A|-2--2----5--8-7---2--2----5--8-7----|
E|-0--0----3--6-5---0--0----3--6-5----|
 NIETZSCHE        NIETZSCHE 

e|-------------|
B|-------------|
G|-------------|
D|---2----2----|
A|---2----2----|
E|---0----0----|
   NIETZSCHE
Tap to rate this tab
# A B C D E F G H I J K L M N O P Q R S T U V W X Y Z