Song name
# A B C D E F G H I J K L M N O P Q R S T U V W X Y Z

Misc Unsigned Bands - Absolace - I Am So I Will tab

Band: Absolace
Title: I Am So I Will
Album: Fractals
Tabbed by: Josh Tate
e-mail: redick4ulous@hotmail.com

Tuning: Drop D (DADGBE)

I tabbed out all the parts in order, but some parts repeat.


E ---------------------------------|
B ---------------------------------|
G ---------------------------------|
D ---------------------------------|
A ---------------------------------|
D --0--0--0-0-0--0--0-0-0--0--0-0--|
    P  P  P P P  P  P P P  P  P P  


E -------------------------------------|
B -------------------------------------|
G -------------------------------------|
D --10---12---0---3---5---0---10---12--|
A --10---12---0---3---5---0---10---12--|
D --10---12---0---3---5---0---10---12--|


E --------------------------------------------------------------|
B --------------------------------------------------------------|
G --------------------------------------------------------------|
D --3-3-----3-3-----3-3-----3-3-----5-5-----5-5-----5-5-----5-5-|
A --3-3-----3-3-----3-3-----3-3-----5-5-----5-5-----5-5-----5-5-|
D --3-3-3-3-3-3-3-3-3-3-3-3-3-3-3-3-5-5-5-5-5-5-5-5-5-5-5-5-5-5-|
        P P     P P     P P     P P     P P     P P     P P     

E ------------------------------------------------|
B ------------------------------------------------|
G ------------------------------------------------|
D ------------------------------------------------|
A --3h5---0---3h5-----------5-5-5-8-8-8-10-10-10--|
D ------0---------0-3-----------------------------|
                            P P P P P P P  P  P

E -----------------------------------------------|
B -----------------------------------------------|
G --10-10---------10-10-----10-10-----10-10------|
D --9--9----------9--9------9--9------9--9-------|
A -----------------------------------------------|
D --------9-9-9-9-------9-9-------9-9-------9-9--|
          P P P P       P P       P P       P P


        Slightly overdriven
E -------------------------------------------------------1--0-1-|
B --1~~~~~~--1-1---0~~~~~~--0-0--1~~~~~~--1-1---0~~~~~~---------|
G -----3~~~---3-------0~~~---0------3~~~---3-------0~~~---------|
D --------------------------------------------------------------|
A --------------------------------------------------------------|
D --------------------------------------------------------------|


E ----------------------|        E ---------------------|
B ----------------------|        B ---------------------|
G -----------------7\---|        G ----------------7\---|
D ----------3------7\---| x4     D ----------4-----7\---| x4
A --------------5--5\---|        A --------------5-5\---|
D --0-0-0-0---6---------|        D --0-0-0-0---6--------|
    P P P P                          P P P P

After this, the song repeats.
Tap to rate this tab
# A B C D E F G H I J K L M N O P Q R S T U V W X Y Z