Guitaretab - guitar tabs
Song name
# A B C D E F G H I J K L M N O P Q R S T U V W X Y Z

Misc Unsigned Bands - Not Normal - Stella tab

We are a real we just dont have a contract or anything

Track: Stella
Artist/Band: Not Normal


Intro              Verse

Guitar 1
E-----------------|:--------------------|
B-----------------|:--------------------|
G-----------------|:--------------------|
D--3-3-3-3-3-3----|:-----------5--5-5-5:|\
A---4-4-4-4-4-4---|:-2--2-2-2--3--3-3-3:| >(Repeat x2 befor G2 Kicks in, then continue)
e-----------------|:-0--0-0-0----------:|/

Guitar 2 Verse
[ Tab from: http://www.guitaretab.com/m/misc-unsigned-bands/32650.html ]
E-----------------------------
B-----------------------------
G-----------------------------
D-----------------------------
A-7(x8)--8(x8)--7(x8)--6(x8)--  \
e-7(x8)--8(x8)--7(x8)--6(x8)--   >(Repeat once, G1 STOPS,
continue once and then start Vocal Verse1. continue till Guitar Chorus)

Chorus(G1 play only)
E-----------------------
B-----------------------
G-----------------------
D-1-1-1---5---1-1-1---3-
A-2-2-2---6---1-1-1---4-
e-2-2-2---6---1-1-1---4-


LYRICS

       Verse 1
 Its that time again,once a month,now i'm bleedin from my muff,[my hairy muff]

CHORUS
 
 STELLA  STELLA STELLA STELLA

       Verse 2
 Am gonna scream again,at all my friends. gonna ball again till all this ENDS!

  CHORUS

 STELLA! STELLA! STELLA! STELLAAAAA!
Related for Not Normal - Stella tab
×
Not Normal - Stella