Song name
# A B C D E F G H I J K L M N O P Q R S T U V W X Y Z

Misc Unsigned Bands - The Megas - The Annihilation Of Monsteropolis tab

intro
I believe this is how it is played originally but I like to play it one octave up too 
(that means starting on the first fret of the e string).
e||------------------------------------------------|
B||------------------------------------------------|
G||------------------------------------------------|
D||3--6-5--4--3--6--5--4--3--3---------------------|
A||----------------------------6-4-3--4-6----1-3-1-|
E||---------------------------------------4--------|

e||------------------------------------------------|
B||------------------------------------------------|
G||------------------------------------------------|
D||--6-5--4--3--6--5--4--3--3----------------------|
A||---------------------------6-4-3--4-6----1-3-1--|
E||--------------------------------------4---------|

bridge 1
rhythm guitar                    lead guitar (kicks in on the power chords)
e||--------------|---------|       |----------------------|
B||--------------|---------|       |-11-9-9-9-9-10--11----|
G||--------------|---------|       |----------------------|
D||----------1---|---------|       |----------------------|
A||1-3-1-4-1---1-|-6666678-|       |----------------------|
E||--------------|-4444456-|       |----------------------|
                 |-->-->-->-->-->-------------------------|
verse
"Sitting in my throne up in the sky"
e||--------------------------------------------------------------------|
B||--------------------------------------------------------------------|
G||--------------------------------------------------------------------|
D||--------------------------------------------------------------------| x2
A||-8--8---8-8--8---8-8--8---8--8---8-6--6---6-6--6---6-6--6---6-6--6--|
E||-6--6---6-6--6---6-6--6---6--6---6-4--4---4-4--4---4-4--4---4-4--4--|

chorus
"Do you know what it's like to be built this way?"

rhythm guitar
Didn't feel like writing the rhythmic pattern, just play these 2 power chords how you 
feel they should go.
e||-------------------------------------------------------|
B||-------------------------------------------------------|
G||-------------------------------------------------------|
D||-4------------------6----------------------------------|
A||-4------------------6----------------------------------| x2
E||-2------------------4----------------------------------|

lead guitar
The lead guitar follows the vocal melody with a few slight differences in the end.       
                                          first ending
e||-------|--------------------------------------------|-16--14--13--11--|
B||-14-13-|-11--11-11-9-11--11-11--11--14-14-14--13-13-|-----------------|
G||-------|<--<--<--<--<--<--<--<--<--<--<--<--<--<--<--<--<--<--<--<--<-|
D||-------|--------------------------------------------|-----------------|
A||-------|--------------------------------------------|-----------------|
E||-------|--------------------------------------------|-----------------|
   second ending
e||-------13-----|
B||-13-14--------|
G||--------------|
D||--------------|
A||--------------|
E||--------------|

guitar solo
I don't know the exact guitar solo and I won't be trying to tab it out but I'll give you 
some tips about it. Rhythm guitar plays the verse.
      begins with       for 1st power chord  for 2nd power chord
e||--------------------|--------------------|--------------------|
B||-9-9-9-9-9-10--11---|-11--9------9--11---|--9--7----7--9------|
G||--------------------|--------10----------|--------8-----------|
D||--------------------|--------------------|--------------------|
A||--------------------|--------------------|--------------------|
E||--------------------|--------------------|--------------------|
Work around with those frets and for the last part just climb up the high tones of the 
first 3 strings (shouldn't be hard unless you're a newbie).

bridge 2
Same as bridge 1 but without the power chords. Starts before "Up in the sky" and plays 
through the whole pre-chorus. Use a flanger effect for this part.
e||--------------|
B||--------------|
G||--------------|
D||----------1---|
A||1-3-1-4-1---1-|
E||--------------|

pre-chorus
Starts after "And your doom will rain down!"
Play these power chords in the same rhythmic pattern as the verse. The last time don't 
play the 6-8-8 power chords.
E||------------------------------------|
B||------------------------------------|
G||------------------------------------|
D||-4-------6--------8-------8---------| x9001
A||-4-------6--------8-------8---------|
E||-2-------4--------6-------6---------|

ending
The same as the intro but without the last part
e||-------------------------|
B||-------------------------|
G||-------------------------|
D||3--6-5--4--3--6--5--4--3-|
A||-------------------------|
E||-------------------------|

order:
intro
bridge 1
verse
chorus
intro
bridge 1
verse
guitar solo
brige 2 (continues through the pre-chorus)
pre-chorus
chorus x2
ending

There are probably a lot of mistakes here so correct me if you notice them.

http://www.themegas.com/
Tap to rate this tab
 
# A B C D E F G H I J K L M N O P Q R S T U V W X Y Z