Song name
# A B C D E F G H I J K L M N O P Q R S T U V W X Y Z

Misc Unsigned Bands - Velvet Cacoon - Ps Nautical tab

-------------------------------------------------------------------------------
                            P.S. NAUTICAL - Velvet Cacoon
-------------------------------------------------------------------------------
Tabbed by: Kyle
E-mail: guitardude125@yahoo.com

Tuning: CGCFAD (DROP C)

       Intro/Verse
e|-----------------------------------------------------------------------------|
B|-----------------------------------------------------------------------------|
G|-----------------------------------------------------------------------------|
D|-3---------------------------------------------------------------------------|
A|-1---(16x)---2----(16x)------------------------------------------------------|
E|-1-----------1---------------------------------------------------------------|

      Chorus (1)
e|-------------------------------------------------------------------------------|
B|-------------------------------------------------------------------------------|
G|-------------------------------------------------------------------------------|
D|-4---------3-------------------------------------------------------------------|
A|-1---(16x)--2---(16x)---3---(16x)---2----(16x)---------------------------------|
E|-1----------1----------1-----------1-------------------------------------------|

      Chorus (2)
e|-------------------------------------------------------------------------------|
B|-------------------------------------------------------------------------------|
G|---------------------4-----------4---------------------------------------------|
D|-4--------1----------6--(16x)----5---(16x)-------------------------------------|
A|-1--(16x)--5--(16x)---2-----------2--------------------------------------------|
E|-1---------1-------------------------------------------------------------------|

   Outro (with effects)
e|---------------------------------------|-----------------------------------------|
B|---------------------------------------|-----------------------------------------|
G|---------------------------------------|-----------------------------------------|
D|---------------------------------------|-----------------------------------------|
A|--6 (repeat as many times as necessary)|---5-6---5-6---5-6--5-6--5-6-------------|
E|---------------------------------------|-------5-----5-----5----5-----5----------|
Tap to rate this tab
# A B C D E F G H I J K L M N O P Q R S T U V W X Y Z