Song name
# A B C D E F G H I J K L M N O P Q R S T U V W X Y Z

Misc Unsigned Bands - Beneath All That Burns - If You Could Change Id Be Better tab

"If You Could Change, I'd Be Better" - Beneath All That Burns

Tabbed by: MikeLeeway
E-mail: mikeareleus@yahoo.com

Tuning: Drop A#

Intro: Volume Swell
C||---------------|
G||---------------|
D#|---------------|
A#|-0~------------|
F||-0~------------|
A#|-0~------------|

Verse: Gtr 1 X4
C||------------------------------------------------------------|
G||------------------------------------------------------------|
D#|------------------------------------------------------------|
A#|------------------------------------------------------------|
F||-0-0--00--0-0-0-0-0-0--0000-0-0-0-00-0--00000000------------|
A#|-0-0--00--0-0-0-0-0-0--0000-0-0-0-00-0--00000000------------|
PM  - -  --  - - - - - -  ---- - - - -- -  --------              

Verse: Gtr 2 X4
C||------------------------------------------------------------|
G||---6-----6-----6-----6-----6-----6/9-----9----9-------------|
D#|-9---9-9---9-9---9-9---9-9---9-9-9/12-12^--12^--------------|
A#|------------------------------------------------------------|
F||------------------------------------------------------------|
A#|------------------------------------------------------------|

Verse Guitars are the pre-chorus 
So basically you're playing the verse 5 times

Chorus: Gtr 1 play this prt 2 times
   "I hate you..."
C||-----------------------------------------|
G||-----------------------------------------|
D#|-----------------------------------------|
A#|-8-8-8-8-3-3-3-3-0-0-0-0-5-5-5-5---------|
F||-8-8-8-8-3-3-3-3-0-0-0-0-3-3-3-3---------|
A#|-8-8-8-8-3-3-3-3-0-0-0-0-----------------|

Gtr 1 Cont.
C||----------------------------------------------------------------|
G||----------------------------------------------------------------|
D#|----------------------------------------------------------------|
A#|-3-3-3-3-3-3-3-3-5-5-5-5-5-5-5-5-3--3-3-2-2--2-3--3-3-2-2--2----|
F||-3-3-3-3-3-3-3-3-3-3-3-3-3-3-3-3-3--3-3-3-3--3-3--3-3-3-3--3----|
A#|-3-3-3-3-3-3-3-3-----------------3--3-3-2-2--2-3--3-3-2-2--2----|

Chorus: Gtr 2 play this prt twice
   "I hate you..."
C||--------------------------------------------|
G||-10-10-10-10-6-6-6-6-6-6-6-6-5-5-5-5--------|
D#|-10-10-10-10-5-5-5-5-5-5-5-5-5-5-5-5--------|
A#|--------------------------------------------|
F||--------------------------------------------|
A#|--------------------------------------------|

Gtr 2 Cont.
C||----------------------------------------------|
G||-----6---6-----6---6-----6---6-----6---6------|
D#|-5-5-5-5-5-5-5-5-5-5-5-5-5-5-5-5-5-5-5-5------|
A#|----------------------------------------------|
F||----------------------------------------------|
A#|----------------------------------------------|
PM  - -   -   - -   -   - -   -   - -   -                           

Gtr 2 Cont.
C||----------------------------------------------|
G||-----5---5-----5---5-----5---5-----5---5------|
D#|-5-5-5-5-5-5-5-5-5-5-5-5-5-5-5-5-5-5-5-5------|
A#|----------------------------------------------|
F||----------------------------------------------|
A#|----------------------------------------------|
PM  - -   -   - -   -   - -   -   - -   -              

Gtr 2 Cont.
C||--------------------------------|
G||-6--6-6-8-8--8-6--6-6-8-8--8----|
D#|-7--7-7-9-9--9-7--7-7-9-9--9----|
A#|--------------------------------|
F||--------------------------------|
A#|--------------------------------|

Repeat verse 2 times 
including pre-chorus which just means play the verse 3 times

After Pre-Chorus Breakdown: Gtr 1 X2
C||--------------------------------|
G||--------------------------------|
D#|--------------------------------|
A#|--------------------------------|
F||-0000--0-0-0-0-0--0---0---------|
A#|-0000--0-0-0-0-0--0---0---------|
PM  ----  - - - - -  -   -            

Gtr 2 
C||---------------------------------------|
G||---------------------------------------|
D#|---------------------------------------|
A#|---------------------------------------|
F||-8p0-7p0-3p0-5p0-10p0-8p0-7p0-8p0------|
A#|---------------------------------------|

Gtr 2 Cont.
C||---------------------------------------|
G||---------------------------------------|
D#|---------------------------------------|
A#|---------------------------------------|
F||-8p0-7p0-3p0-5p0-10p0-8p0-12p0-10p0----|
A#|---------------------------------------|

Repeat Chorus
Ring out on *0* with gtr 1
             0
             0

Ring out on *6* with gtr 2
             9

The ending is the breakdown from before for gtr 1
Ending for Gtr 2 is a play on these chords:
C||-----------------|
G||-----------------|
D#|-7-8-10-6-5------|
A#|-x-x-x--x-x------|
F||-5-6-8--4-3------|
A#|-----------------|

If I'm wrong then I'm only half correct.
I wrote this song but my memory escapes me on the last 
part for the 2nd Gtr but I remembered the chords. 
Tap to rate this tab
# A B C D E F G H I J K L M N O P Q R S T U V W X Y Z