Guitaretab - guitar tabs
Song name
# A B C D E F G H I J K L M N O P Q R S T U V W X Y Z

Misc Unsigned Bands - Alex Mazursky Experience - Die Die Die Kill Kill Kill tab

-------------------------------------------------------------------------------
	Die Die Die Kill Kill Kill - Alex Mazursky Experience
-------------------------------------------------------------------------------
We are from richmond virginia, USA
we have a army of devil worshiping fans
Tabbed by:Andrew Hamlet
Email:Elcominoboy330@aol.com

Tuning:Standard

e|------------------------------------------------------------------------------|
B|------------------------------------------------------------------------------|
G|------------------------------------------------------------------------------|
D|-9-9-7-7-7-7---9-7-5----------------------------------------------------------|
A|-9-9-7-7-7-7x3-9-7-5-----x2---------------------------------------------------|
E|-7-7-5-5-5-5---7-5-3----------------------------------------------------------|

  soloing time
e|-11-9-8-11-9-8-11-9-8-11-9-8-10-9-7-10-9-7-11-9-8-11-9-8--x4-----------------|
B|-----------------------------------------------------------------------------|
G|-----------------------------------------------------------------------------|
D|-----------------------------------------------------------------------------|
A|-----------------------------------------------------------------------------|
E|-----------------------------------------------------------------------------|

  Van Halen Time
e|-----------------------------------------------------------------------------|
B|-2h9p2h4-x4-2h7p2h4 x2--------x4---------------------------------------------|
G|-----------------------------------------------------------------------------|
D|-----------------------------------------------------------------------------|
A|-----------------------------------------------------------------------------|
E|-----------------------------------------------------------------------------|
[ Tab from: http://www.guitaretab.com/m/misc-unsigned-bands/32680.html ]
  Andrew says "DADDY WHAT IS DEMOCRACY"
e|-------------------------------------------------------------------------------|
B|-------------------------------------------------------------------------------|
G|-------------------------------------------------------------------------------|
D|-5-7---------------------------------------------------------------------------|
A|-5-7---------------------------------------------------------------------------|
E|-7-5---------------------------------------------------------------------------|

  Alex says "IT IS WHEN A BUNCH OF LITTLE CHILDREN KILL EACH OTHER"
e|-----------------------------------------------------------------------------|
B|-----------------------------------------------------------------------------|
G|-----------------------------------------------------------------------------|
D|-5-7-5-----------------------------------------------------------------------|
A|-5-7-5-----------------------------------------------------------------------|
E|-7-5-3-----------------------------------------------------------------------|

  After Bass Solo
e|-5-3-2-5-3-2-5-3-2-5-3-2-----------------------------------------------------|
B|-------------------------2-4-2-4---x4----------------------------------------|
G|-----------------------------------------------------------------------------|
D|-----------------------------------------------------------------------------|
A|-----------------------------------------------------------------------------|
E|-----------------------------------------------------------------------------|

 Outtro
e|-----------------------------------------------------------------------------|
B|-----------------------------------------------------------------------------|
G|-----------------------------------------------------------------------------|
D|-9-9-7-7-7-7----9-7-5--------------------------------------------------------|
A|-9-9-7-7-7-7-x3-9-7-5--until end---------------------------------------------|
E|-7-7-5-5-5-5----7-5-3--------------------------------------------------------|

| /  slide up
| \  slide down
| h  hammer-on
| p  pull-off
| ~  vibrato
| +  harmonic
| x  Mute note
===============================================================================
Related for Alex Mazursky Experience - Die Die Die Kill Kill Kill tab
Advertisement will be closed in 10 seconds