Song name
# A B C D E F G H I J K L M N O P Q R S T U V W X Y Z

Misc Unsigned Bands - Jeff Carter - Jootmin tab

to find more on this new band go to www.webradium.com/emansite


^=wait till the note dies away to start playing again
%=repeat notes in bars
~=vibrate
/=slide
#=use whamie bar

e----------------------------|-------------------------------------------------
b----------------------------|-------------------------------------------------
D----------------------------|-------------------------------------------------
G----------------------------|-------------------------------------------------
A----------------------------|--5----7----3----5----5----7----3----5--5--7--3--
E--14--12--14--12/10--10--0^-|--5----7----3----5----5----7----3----5--5--7--3--

e----------------------------------0#^-|-----------|-----|-----------|-----|---
b----------------------------------0---|-----------|-----|-----------|-----|---
D----------------------------------0---|-----------|-----|--7-7-7-7--|-----|---
G----------------------------------4---|--7-7-7-7--|-----|--7-7-7-7--|-----|---
A--5--5--7--3--5-5-7-3-5-5-7-3-5---4---|--7-7-7-7--|--%--|--5-5-5-5--|--%--|---
E--5--5--7--3--5-5-7-3-5-5-7-3-5---4---|--5-5-5-5--|-----|-----------|-----|---
Tap to rate this tab
# A B C D E F G H I J K L M N O P Q R S T U V W X Y Z