Song name
# A B C D E F G H I J K L M N O P Q R S T U V W X Y Z

Misc Unsigned Bands - Six Ribbons - Six Ribbons tab

-------------------------------------------------------------------------------
                             Six ribbons
-------------------------------------------------------------------------------
Tabbed by: reuyuu
E-mail: upsu_2@hotmail.com

Tuning: Standard

e|-----------------0---------------------------------|
B|-----0-1-0-----3---3-1-0-----0-1-0-----------0-----|
G|---2L------2p0-----------2p0-------2-0---0-2---0-2-|
D|-2L------------------------------------2-----------| x2
A|---0L------------3L------------0L----------0L----0-|
E|---------3L------------3L------------0L------------|

e|--3-0---3-0---5-3-0-------0-----------------------|
B|------1-----1-------1-0h3---3-1-0-----0-1h3-0L----|
G|----------------------------------2p0---------0-2-|
D|--------------------3L----------------------------|
A|--3L----3L----0L----------3L------------0L------0-|
E|--------------------------------3L----------------|



************************************

| L   let ring
| /   slide up
| \   slide down
| h   hammer-on
| p   pull-off
| ~   vibrato
| +   harmonic
| x   Mute note
| b   Bend
| pb  Pre-bend
| br  Bend release
| pbr Pre-bend release
| brb Bend release bend

************************************
Tap to rate this tab
# A B C D E F G H I J K L M N O P Q R S T U V W X Y Z