Song name
# A B C D E F G H I J K L M N O P Q R S T U V W X Y Z

Misc Unsigned Bands - Lakyn Heperi - Kids tab

Capo 6 - Drop D tuning

Intro:
e|---------0---3---|-5-----7/5-0---0-|---------0-------|-----------------|
B|-1---3-----------|-------------3---|-------3---3-----|-------3-------0-|
G|---2---2---2---2-|-----------------|-----0-------0---|-----0-------0---|
D|-----------------|-----0-----------|---2-----------2-|---2-------0-----|
A|-0---0---0---0---|---3-------------|-3---------------|-3-------2-------|
E|-----------------|-3---------------|-----------------|-----------------|

Verses: carry on until chorus starts
e|-----------------|-----------------|-----------------|-----------------|
B|-1---1---1---1---|-0---0---0---0---|-1---1---1---1---|-0---0---0---0---|
G|---2---2---2---2-|---0---0---0---0-|---0---0---0---0-|---0---0---0---0-|
D|-----------------|-----------------|-----------------|-----------------|
A|-0---0---0---0---|-----------------|-3---3---3---3---|-2---2---2---2---|
E|-----------------|-3---3---3---3---|-----------------|-----------------|

Chorus:
e|---------0---3---|-5-----7/5-0---0-|---------0-------|-----------------|
B|-1---3-----------|-------------3---|-------3---3-----|-------3-------0-|
G|---2---2---2---2-|-----------------|-----0-------0---|-----0-------0---|
D|-----------------|-----0-----------|---2-----------2-|---2-------0-----|
A|-0---0---0---0---|---3-------------|-3---------------|-3-------2-------|
E|-----------------|-3---------------|-----------------|-----------------|

e|---------0-------|----------------|---------0-------|-----------------|
B|-1---3-------3---|-1--3-1-----3-1-|-------3---3-----|-------3-------0-|
G|---2---2---2---2-|----2-2-----2-2-|-----0-------0---|-----0-------0---|
D|-----------------|----------------|---2-----------2-|---2-------0-----|
A|-0---0---0---0---|---3------3-----|-3---------------|-3-------2-------|
E|-----------------|-3------3-------|-----------------|-----------------|
Tap to rate this tab
# A B C D E F G H I J K L M N O P Q R S T U V W X Y Z