Song name
# A B C D E F G H I J K L M N O P Q R S T U V W X Y Z

Misc Unsigned Bands - Jet Force Gemini - Ss Anubis tab

Band: Nintendo - Jet Force Gemini
Song: SS Anubis
Year: 11/10/99
Tabbed by: Oscar Velásquez

Symbols used in this tab:

b: bend

----------------------------

This is only the FIRST GUITAR

E:-------------|-------------|---------------|-----------|
B:-------------|-------------|---------------|-----------|
G:-------------|-------------|--4--2--------2|--4b--4-2-4|
D:----2--4-5--2|--7--5-4-5--2|--------5-4--5-|-----------|
A:-2-----------|-------------|---------------|-----------|
E:-------------|-------------|---------------|-----------|

E:-------------|-------------|---------------|-------------|
B:-------------|-------------|---------------|-------------|
G:-------------|-------------|--4--2---------|-------------|
D:----2--4-5--2|--7--5-4-5--2|-------5-4--2-4|--5--4-2-1--2|
A:-2-----------|-------------|---------------|-------------|
E:-------------|-------------|---------------|-------------|

E:----------|---------------------|-----------------------|
B:----------|---------------------|-----------------------|
G:----------|------2------4--2----|---------------2-------|
D:----4--5-2|--4-5----5-7------5-4|--2-4-5-4-2-1-----5-4-2|
A:-2--------|---------------------|-----------------------|
E:----------|---------------------|-----------------------|

E:-------------------------------|
B:-------------------------------|
G:-------------------------------|
D:-2-4-5---4-5-7---5-6-8---7-8-10| X2
A:-------------------------------|
E:-------------------------------|
Tap to rate this tab
# A B C D E F G H I J K L M N O P Q R S T U V W X Y Z