Song name
# A B C D E F G H I J K L M N O P Q R S T U V W X Y Z

Misc Unsigned Bands - Simple Evasion - Out Of The Darkness Into The Light tab

This is a song my band Simple Evasion wrote, and this is my first tab so i hope you guys 
like it :)
Intro
E-0--0--0--0--0---------|
A--7--7--5--7--7--7-----|
D------------------7-5--| (x6)
G-----------------------|
B-----------------------|
e-----------------------|
Riff
E-5-7-5-7-5-7-5-7-------|
A-3-5-3-5-3-5-3-5--7-5--|
D-3-5-3-5-3-5-3-5--5-3--| (x4)
G------------------5-3--|
B-----------------------|
e-----------------------|
Chorus
E-0-------5-7-5---------|
A-2-(x12)-3-5-3---------|Play the E chord 12 times
D-2-------3-5-3---------|and then play the powerchords
G-----------------------|and repeat this seven times
B-----------------------|
e-----------------------|
Solo
E-0-0--0--0--0----------|
A--7-7--5--7--7--7------| Reapeat this 5 times with Distortion
D-----------------7-5---|
G-----------------------|
B-----------------------|
e-----------------------|
Outro
E-5-7-5-7-5-7-5-7-------|
A-3-5-3-5-3-5-3-5-7-5---|
D-3-5-3-5-3-5-3-5-5-3---| (x4)
G-----------------5-3---|
B-----------------------|
e-----------------------|
Tap to rate this tab
# A B C D E F G H I J K L M N O P Q R S T U V W X Y Z