Song name
# A B C D E F G H I J K L M N O P Q R S T U V W X Y Z

Misc Unsigned Bands - Days Notice - How It Is To Be You tab

Band : Days Notice
Song : How It Is To Be You

www.geocities.com/daysnotice

Dropped D

intro/verse
E-----------------------------------------------------------------------
B-----------------------------------------------------------------------
G------------------------1st---------10----------2nd------------3rd-----
D------14----10-12--x3-------8----10---------------8----5-------8--5--7-
A---12----12---------------8----8-----------10----8----5----7---8--5--7-
D-0----------------------8---------------10------8---5----7-----8--5--7-

chorus
E------------------------------------------
B----------------1st------2nd--------------
G------------------------------------------
D-0--0--7--5--3--3h5-5-----5---------------
A-0--0--7--5--3--3h5-5-----3---------------
D-0--0--7--5--3--3h5-5---------<3>---------
                              pitch harmonic

bridge
E---------------------------------
B---------------------------------
G---------------------------------
D--0-0--0000-0-0-0-0-0-0----------
A--0-0--0000-0-0-0-0-0-0----------
D--0-0--0000-0-0-0-0-0-0-<3>------

3rd verse
E-----0-----------3-----------------------------
B--3----3-----------3---------3-----------------
G--2------2----5------5----3----3-----2---------
D--0--------0--5--------5--3------3---2--3--2---
A--0-----------3-----------1----------0--3--2---
D--0-----------3-------------------------3--2---

interlude
E------------------------------------------------------------------
B------------------------------------------------------------------
G------------------------------------------------------------------
D---------5-3---2-3---------/7-5-3----------5-3----2-3-------------
A---5-3---------------2-3-------------5-3--------------2-3-5-3-2-0-
D--0----0-----0-----0-----0---------0-----0------0----0------------

outro/solo rhythm
E----------------------------
B----------------------------
G----------5-----------------
D-0-0-0x3--5---0-0-0-3--0----
A-0-0-0x3--3---0-0-0-3--0----
D-0-0-0x3------0-0-0-3--0----

Days Notice is a great band out of Rhode Island
if you get a chance check them out
Tap to rate this tab
# A B C D E F G H I J K L M N O P Q R S T U V W X Y Z