Song name
# A B C D E F G H I J K L M N O P Q R S T U V W X Y Z

Misc Unsigned Bands - Social Impact - Screwing With My Mind tab

Help us improve GuitareTab! Take a short survey!
-screwing with my mind- social impact-
good tab, 100% right. Made by band website.
url www.geocities.com/socialimpact0

intro
e--------------------------
b--------------------------
g-4------------------------
d-4--4--6--2---------------
a-2--4--6--2---------------
e----2--4--0---------------  x2

e---------------------------
b---------------------------
g-4--------4----------------
d-4--------4----------------
a-2--------2----------------
e----0-2-------0-2----------

chorus
e----------------------------
b----4-----------------------
g-4--4-----------------------
d-4--2--6--4-----------------
a-2-----6--4-----------------
e-------4--2----------------- x4

verse (same as first intro)

e--------------------------
b--------------------------
g-4------------------------
d-4--4--6--2---------------
a-2--4--6--2---------------
e----2--4--0--------------- x4

bridge

e-------------------------
b-------------------------
g-4-----------------------
d-4-----------------------
a-2-----------------------
e----2--4--0-------------- x4

    very easy song to learn. hope you enjoy.
Related for Social Impact - Screwing With My Mind tab