Guitaretab - guitar tabs
Song name
# A B C D E F G H I J K L M N O P Q R S T U V W X Y Z

Misc Unsigned Bands - Social Impact - My First Invention tab

My First Invention-social impact

You may want to listen to the song before you learn it.

e-------------------------------------------
b-------------------------------------------
g-------------9-------------------4---------
d-4---7---9---9---9---9---7---4---4---4-----
a-4---7---9---7---9---9---7---4---2---4-----
e-2---5---7-------7---7---5---2-------2-----|x2|

[ Tab from: http://www.guitaretab.com/m/misc-unsigned-bands/32757.html ]
e-------------------
b-------------------
g-----4-------------
d-4---4---7---2-----
a-4---2---7---2-----
e-2-------5---0-----|x4|


guitar solo
e------------------------------------------------
b------------------------------------------------
g------------------------------------------------
d---------------------2-4--------5-5-5--4-4-4----
a-2-4--2-4--2-4--2-4-----------------------------
e----------------------------|x3|-----------------|x2|


bridge
e------
b------
g-4----
d-4----
a-2----
e------|x4|
Related for Social Impact - My First Invention tab
×
Social Impact - My First Invention