Song name
# A B C D E F G H I J K L M N O P Q R S T U V W X Y Z

Misc Unsigned Bands - Deap Vally - Gonna Make My Own Money tab

Standard Tuning
/=slide
b=bend

Intro:
|--1-3--9/8--6----1-3-------------------1-3--9/8--6---1-1/3-1--1-1/3-1--1/3-3----|
|--1-3---------8--1-3-------------------1-3---------8-1-1/3-1--1-1/3-1--1/3-3----|
|--1-3------------1-3-------------------1-3-----------1-1/3-1--1-1/3-1--1/3-3----|
|--3-5------------3-5-------------------3-5-----------3-3/5-3--3-3/5-3--3/5-5----|
|--3-5------------3-5--3-3-3-3-3-3-5b--3-5-----------3-3/5-3--3-3/5-3--3/5-5-----|
|--1-3------------1-3-------------------1-3-----------1-1/3-1--1-1/3-1--1/3-3----|

Verse:
|--1-3--|
|--1-3--|
|--1-3--|
|--3-5--|
|--3-5--|
|--1-3--|

Chorus:
|--3----1--|
|--3----1--|
|--3----1--|
|--5----3--|
|--5----3--|
|--3----1--|

Bridge:
|--1-33-1---3--3-1-1-|
|--1-33-1---3--3-1-1-|
|--1-33-1---3--3-1-1-|
|--3-55-3---5--5-3-3-|
|--3-55-3---5--5-3-3-|
|--1-33-1---3--3-1-1-|


Lyrics:

(Verse)
Yes, I'd marry a rich man,
Find a rich one if you can.
Daddy, don't you understand?

(Chorus)
I'm gonna make my own money, gonna buy my own land.

(Verse) (Chorus)

(Bridge)
Ah, ah, ah, ah, ahh, ahh, ahh (x7)

Repeat verse/chorus  2 more times

*****Note: I tabbed this to the best of my ability, and didn't include any repeats. 
Sections will need to be repeated. It should be pretty easy to listen to a recording and 
figure it out.******
Tap to rate this tab
# A B C D E F G H I J K L M N O P Q R S T U V W X Y Z