Song name
# A B C D E F G H I J K L M N O P Q R S T U V W X Y Z

Misc Unsigned Bands - Rie Kugimiya - Snowstorm tab

Tabbed by Animeguitarist21
Here's the cover I did for it...
http://www.youtube.com/watch?v=2SUxDr776uk
Message me at animeguitarist21@yahoo.com if you have any questions or concerns!

Verse 
E|---3---3------------3---6-4-3---3---3--4-3------------3-----------------------------|
B|--4---4--6-4-3-4---4---4------6----6--6----6-4-3-4---4--6-4-------------------------|
G|-5---5------------5---5-----------------------------5-------7-7-5-------------------|
D|------------------------------------------------------------------------------------|
A|------------------------------------------------------------------------------------|
E|------------------------------------------------------------------------------------|

Pre Chorus
E|----6-4-3--3-----3-3--------3-3-3-6-4-3----3----------------------------------------|
B|--4-------6---4-6---6-4-3-4------6-----6----6----6-4--------------------------------|
G|-5-5--------------------------------------5----3------------------------------------|
D|------------------------------------------------------------------------------------|
A|------------------------------------------------------------------------------------|
E|------------------------------------------------------------------------------------|

Chorus                                                      *Play Twice*
E|--------------------------------------------------------|---3---3-------------------|
B|--11-9-8-6--9-8-6-4--11-9-8-6-6-6-8--11-9-8-6--9-8-6-4--|--4---4--6-4---------------|
G|-8---------8--------8--------8-8----8---------8---------|-5---5------7-7-5----------|
D|--------------------------------------------------------|---------------------------|
A|--------------------------------------------------------|---------------------------|
E|--------------------------------------------------------|---------------------------|
Tap to rate this tab
# A B C D E F G H I J K L M N O P Q R S T U V W X Y Z