Song name
# A B C D E F G H I J K L M N O P Q R S T U V W X Y Z

Misc Unsigned Bands - Honningbarna - La Alarmane Gaa tab

Bassline:
G:|------------------------------------------------------------------------|
D:|------------------------------------------------------------------------|
A:|------------------------------------------------------------------------|
E:|--2-4-4-4-4-4-4-4-2-2-4-4-4-4-4-4-4-2-2-4-4-4-4-4-4-4-2-2-4-4-4-4-4-4-4-|

(Drums enter)

(Bassline continues while vocals enter)

Guitar enters:
e:|---------------------------------|
B:|---------------------------------|
G:|----6b-4b----6-6-6-6-6-6-6-6-6-6-|
D:|--6-6b-4b----4-4-4-4-4-4-4-4-4-4-|
A:|--6------------------------------|
E:|---------------------------------|

Chorus riff:
e:|--------------|
B:|--------------|
G:|--------------|
D:|--9-9-9-9-2-2-|
A:|--9-9-9-9-2-2-|
E:|--7-7-7-7-0-0-|

e:|----------------------------------|
B:|----------------------------------|
G:|----------------------------------|
D:|--6-6-6-6-6-6-6-6-9-9-9-9-2-2-4-4-|  (Repeat)
A:|--6-6-6-6-6-6-6-6-9-9-9-9-2-2-4-4-|
E:|--4-4-4-4-4-4-4-4-7-7-7-7-0-0-2-2-|

(Bassline)

Verse guitar:
e:|--------------------------------------------------------------------------|
B:|--------------------------------------------------------------------------|
G:|------4------4--------------4--------6b-6--------4----------4b--------4---|
D:|--4-6---6------6-4-6----4-6---6----4---------4-6---6----4-6-------4-6---6-|
A:|--------------------------------------------------------------------------|
E:|--------------------------------------------------------------------------|

e:|--------------------------------------|
B:|--------------------------------------|
G:|--20-20-20-20----16-16----18-18-18-18-|
D:|--18-18-18-18----14-14----16-16-16-16-|
A:|--------------------------------------|
E:|--------------------------------------|

Chorus riff: (Same as before, but start on fourth fret)
e:|----------------------------------|
B:|----------------------------------|
G:|----------------------------------|
D:|--6-6-6-6-6-6-6-6-9-9-9-9-2-2-4-4-| (Repeat)
A:|--6-6-6-6-6-6-6-6-9-9-9-9-2-2-4-4-|
E:|--4-4-4-4-4-4-4-4-7-7-7-7-0-0-2-2-|
Tap to rate this tab
# A B C D E F G H I J K L M N O P Q R S T U V W X Y Z