Song name
# A B C D E F G H I J K L M N O P Q R S T U V W X Y Z

Misc Unsigned Bands - Hiatus Kaiyote - Nakamarra chords

-----------------------------------------------------------------
                  Nakamarra - Hiatus Kaiyote
-----------------------------------------------------------------
Email:mjohnson1915@gmail.com

Tuning: Standard

INTRO/BRIDGE
e|-6-4-|
B|-8-6-|
G|-7-5-|
D|-8-6-|
A|-6-4-|
E|-6-4-|

VERSE
e|-3-6-4-1-x-3-|
B|-1-6-4-1-3-1-|
G|-1-7-5-1-4-1-|
D|-1-8-5-1-2-1-|
A|-x-6-6-3-3-x-|
E|-x-x-4-1-x-x-|

CHORUS
e|-x-x-x--x--x--4-6-|
B|-5-4-11-16-13-4-6-|
G|-4-5-12-15-12-5-5-|
D|-5-5-12-13-12-5-5-|
A|-3-4-11-15-11-4-4-|
E|-x-x-x--x--x--x-x-|


| /  slide up
| \  slide down
| h  hammer-on
| p  pull-off
| ~  vibrato
| +  harmonic
| x  Mute note
Tap to rate this tab
 
# A B C D E F G H I J K L M N O P Q R S T U V W X Y Z