Song name
# A B C D E F G H I J K L M N O P Q R S T U V W X Y Z

Misc Unsigned Bands - Zander - At The Door tab

this is the intro to at the door by an upcoming band, zander.
just thought i would post it for when they go national

zander.iuma.com - homepage

Baton Rouge, La USA

e|-------3-3------3-------------------3-3--------3-----5-3------
B|-------3-3--0-1-3--1-0--------------3-3--0-1-3---1-0----------
G|-----------------------0--------------------------------------
D|--------------------------------------------------------------
A|----2---------------------------3-----------------------------
E|--3---------------------------0-------------------------------     

                                                                    2x        

e|-------3-3------3-------------------3-3--3h5h3----------------
B|-------3-3--0-1-3--1-0--------------3-3--------5-3---3--------
G|-----------------------0---------------------------4---4-2-0--
D|--------------------------------------------------------------
A|----2---------------------------3-----------------------------
E|--3---------------------------0-------------------------------
Tap to rate this tab
# A B C D E F G H I J K L M N O P Q R S T U V W X Y Z