Song name
# A B C D E F G H I J K L M N O P Q R S T U V W X Y Z

Misc Unsigned Bands - Iselia - First Seed tab

-------------------------------------------------------------------------------
                            First Seed - Iselia
-------------------------------------------------------------------------------
Tabbed by: Alex Hinton
E-mail: hintonalex@yahoo.com

Tuning: Standard

(Intro)
e|---------------------------------------------------------------------------|
B|----------0~--------------0------------------------------------------------|
G|-------7~---------------7--7-----------------------------------------------|
D|-----5~---------------5------5---------------------------------------------|
A|---7~---------------7------------------------------------------------------|
E|-0~-----------------0------------------------------------------------------|

e|---------------------------------------------------------------------------|
B|----------0~---------------------------------------------------------------|
G|-------7~---------------7--------------------------------------------------|
D|-----5~---------------5----------------------------------------------------|
A|---7~----------------------0-0-0-------------------------------------------|
E|-0~-----------------0------------------------------------------------------|


e|---------------------------------------------------------------------------|
B|---------------------------------------------------------------------------|
G|--------4--2--0-------0-------0--------------------------------------------|
D|----2--------------2------4----------(2x)----------------------------------|
A|--3--------------3----------5----------------------------------------------|
E|---------------------------------------------------------------------------|

(Second guitar comes in and plays this...)
e|---------------------------------------------------------------------------|
B|--8~---8~------------------------------------------------------------------|
G|------------4~---7~--7~----------------------------------------------------|
D|-------------------------5~------------------------------------------------|
A|---------------------------------------------------------------------------|
E|---------------------------------------------------------------------------|

(The next part starts with the first guitar alone...)
e|---------------------------------------------------------------------------|
B|---------3--------------------3--------------------------------------------|
G|------0----0--------------0-----0------------------------------------------|
D|----2--------2---------4----------4----------------------------------------|
A|--3-----------------5------------------------------------------------------|
E|---------------------------------------------------------------------------|

(...and then the second part starts up, which continues till the end of the song...)
e|------10---8---------------------------------------------------------------|
B|---8-----------8-----------------------------------------------------------|
G|---------------------------------------------------------------------------|
D|---------------------------------------------------------------------------|
A|---------------------------------------------------------------------------|
E|---------------------------------------------------------------------------|

(... while the first guitar goes to this part to finish the song, and ends on the second chord.)
e|---------------------------------------------------------------------------|
B|--0-----0------------------------------------------------------------------|
G|--0-----0------------------------------------------------------------------|
D|--2-----4------------------------------------------------------------------|
A|--3-----5------------------------------------------------------------------|
E|---------------------------------------------------------------------------|


************************************
Tap to rate this tab
# A B C D E F G H I J K L M N O P Q R S T U V W X Y Z