Song name
# A B C D E F G H I J K L M N O P Q R S T U V W X Y Z

Misc Unsigned Bands - 4 Star Youth - Punk Is Punk tab

4 Star Youth - Punk Is Punk

 Hi, we are a new english punk band called 4 star youth from hertfordshire.


 palm mute = pm . . .

 Intro
 ------------------------------------------------------------------------------
 ------------------------------------------------------------------------------
 ---------------------------------------X4-------------------------------------
 --4-4-4-----------------------------------------------------------------------
 --------5-5-5-4-4-4-5-5-5-5-5-------------------------------------------------
 ------------------------------------------------------------------------------
 Verse guitar 1
 ------------------------------------------------------------------------------
 ------------------------------------------------------------------------------
 ---------------------------------------X4-------------------------------------
 --4-4-4-----------------------------------------------------------------------
 --------5-5-5-4-4-4-5-5-5-5-5-------------------------------------------------
 ------------------------------------------------------------------------------

 Verse guitar 2
 ------------------------------------------------------------------------------
 -7-7-7------------------------------------------------------------------------
 -6-6-6--7-7-7--6-6-6-------------------X4-------------------------------------
 -4-4-4--7-7-7--6-6-6----------------------------------------------------------
 --------5-5-5--4-4-4----------------------------------------------------------
 ------------------------------------------------------------------------------
pm. . .  . . .  . . .

 Chorus
 ------------------------------------------------------------------------------
 -7-7-7------------------------------------------------------------------------
 -6-6-6--7-7-7--6-6-6-------------------X4-------------------------------------
 -4-4-4--7-7-7--6-6-6----------------------------------------------------------
 --------5-5-5--4-4-4----------------------------------------------------------
 ------------------------------------------------------------------------------

 Solo
 ------------------------------------------------------------------------------
 ------------------------------------------------------------------------------
 ---------------------------------------X4-------------------------------------
 -4-4-4------------------------------------------------------------------------
 -------5-5-5-4-4-4-5-4-5-4-5--------------------------------------------------
 ------------------------------------------------------------------------------

                            Hope u enjoy this tab
Tap to rate this tab
 
# A B C D E F G H I J K L M N O P Q R S T U V W X Y Z