Song name
# A B C D E F G H I J K L M N O P Q R S T U V W X Y Z

Misc Unsigned Bands - Devil Hunters - Kill God By Pushing Him Off The Clouds tab

for info on THE DEVIL HUNTERS go to http://mysite.freeserve.com/thedevilhunters.net
or e-mail me at williamgibson51@msn.com

tabbed by:william gibson                                                        
tunings : e a d g b e
treble:10 
bass: 10
ch select: overdrive
notes: this song is not long and its really easy to play

e|---------------------------------------------------------|
b|---------------------------------------------------------|
g|---------------------------------------------------------|
d|---------------------------------------------------------|
a|-2-2-3-3-5-5-3-3-7-7-5-5-7-7-9-9-7-7-9-9-12-12-9-9-12-12-|
e|-2-2-3-3-5-5-3-3-7-7-5-5-7-7-9-9-7-7-9-9-12-12-9-9-12-12-|

e|---------------------------------------------------------|
b|---------------------------------------------------------|
g|---------------------------------------------------------|
d|---------------------------------------------------------|
a|-2-2-3-3-5-5-3-3-7-7-5-5-7-7-9-9-7-7-9-9-12-12-9-9-12-12-|
e|-2-2-3-3-5-5-3-3-7-7-5-5-7-7-9-9-7-7-9-9-12-12-9-9-12-12-|

e|-2-2-3-3-5-5-3-3-7-7-5-5-7-7-9-9-7-7-9-9-12-12-9-9-12-12-|
b|-2-2-3-3-5-5-3-3-7-7-5-5-7-7-9-9-7-7-9-9-12-12-9-9-12-12-|
g|---------------------------------------------------------|
d|---------------------------------------------------------|
a|---------------------------------------------------------|
e|---------------------------------------------------------|

e|-2-2-3-3-5-5-3-3-7-7-5-5-7-7-9-9-7-7-9-9-12-12-9-9-12-12-|
b|-2-2-3-3-5-5-3-3-7-7-5-5-7-7-9-9-7-7-9-9-12-12-9-9-12-12-|
g|---------------------------------------------------------|
d|---------------------------------------------------------|
a|---------------------------------------------------------|
e|---------------------------------------------------------|

e|-24--24--24--24--24--24--24--24--24--24--24--24--24--24--24|
b|---23--23--23--23--23--23--23--23--23--23--23--23--23--23--|
g|-----------------------------------------------------------|
d|-----------------------------------------------------------|
a|-----------------------------------------------------------|
e|-----------------------------------------------------------|

e|------------------------------------------------------------|
b|------------------------------------------------------------|
g|-0----------------------------------------------------------|
d|-0----------------------------------------------------------|
a|-2----------------------------------------------------------|
e|-0----------------------------------------------------------|
Tap to rate this tab
# A B C D E F G H I J K L M N O P Q R S T U V W X Y Z