Song name
# A B C D E F G H I J K L M N O P Q R S T U V W X Y Z

Misc Unsigned Bands - Standard Play - Fast Forward tab

  hey.this is my band's song.it's our first song ever. i hope you like it
  & rock on!! STRICKTLY PUNK!! -sk8er_guy259@yahoo.com!!

      intro:
     guitar1

     e---------------------------------------
     b---------------------------------------
     g---------------------------------------
     d---------------------------------------
     a--11-11-11-11-11-11-11-----------------
     e--9-9-9-9-9-9-9------------------------

     e---------------------------------------
     b---------------------------------------
     g---------------------------------------
     d---------------------------------------
     a--6-6-6-6-6-6-6------------------------
     e--4-4-4-4-4-4-4------------------------

     e---------------------------------------
     b---------------------------------------
     g---------------------------------------
     d---------------------------------------
     a--8-8-8-8-8-8-8------------------------
     e--6-6-6-6-6-6-6------------------------
    
     e---------------------------------------
     b---------------------------------------
     g---------------------------------------
     d---------------------------------------
     a--4-4-4-4-4-4-4------------------------
     e--2-2-2-2-2-2-2------------------------
Tap to rate this tab
 
# A B C D E F G H I J K L M N O P Q R S T U V W X Y Z