Song name
# A B C D E F G H I J K L M N O P Q R S T U V W X Y Z

Misc Unsigned Bands - Hudson - Against The Grain tab

Quite a simple song, just switching chord shapes is a little tricky.

Intro/verse:

e --------------------------------------------------|
B --------------------------------------------------|
G --------------------------------------------------|
D ---5--5--5--5--5--6--5--5--5--5--5--5--5--6--5--5-|
A -6--6--6--6--6--6--6--6---------------------------|
E -------------------------6--6--6--6--6--6--6--6---|

e -------------------------------------------------|
B -------------------------------------------------|
G -------------------------------------------------|
D -----------------5--3--5-----------------5--3--5-|
A --6--6--6--6--6--6--6--6--6--6--6--6--6--6--6--6-|
E -4--4--4--4--4--4--4--4--4--4--4--4--4--4--4--4--|

pre chorus:

e --------------------------------------------------|
B --------------------------------------------------|
G --------------------------------------------------|
D ---5--5--5--5--3--3--3--3--5--5--5--5--3--3--3--3-|
A -6--6--6--6--5--5--5--5--3--3--3--3--1--1--1--1---|
E --------------------------------------------------|


e -------------------------------------------------|
B -------------------------------------------------|
G -------------------------------------------------|
D -----------------5--3--5-----------------5--3--5-|
A --6--6--6--6--6--6--6--6--6--6--6--6--6--6--6--6-|
E -4--4--4--4--4--4--4--4--4--4--4--4--4--4--4--4--|


Chorus:

e -------------------------------------------------|
B -------------------------------------------------|
G -------------------------------------------------|
D -5--5--5--5--5--5--5--5--5--5--5--5--5--5--5--5--|
A 6--6--6--6--6--6--6--6---------------------------|
E -----------------------6--6--6--6--6--6--6--6----|

e -------------------------------------------------|
B -------------------------------------------------|
G -------------------------------------------------|
D -------------------------------------------------|
A --6--6--6--6--6--6--6--6--8--8--8--8--8--8--8--8-|
E -4--4--4--4--4--4--4--4--6--6--6--6--6--6--6--6--|


After the chorus this is played before returning to the verse:

e -------------------------------------------------|
B -------------------------------------------------|
G -------------------------------------------------|
D --5--5--5--5--5--5--5--5--5--5--5--5--5--5--5--5-|
A -6--6--6--6--6--6--6--6--6--6--6--6--6--6--6--6--|
E -------------------------------------------------|

After this, play the verse, then chorus, and then this:

e ------------------------------------------------||
B ------------------------------------------------||
G ------------------------------------------------||
D --------------3--3--3--3--5--6--5--3--5--6--5---||
A --6--6--6--6-1--1--1--1--3--3--3--3--3--3--3----||
E -4--4--4--4-----------------------------------3-||

Then finally play the intro riff again until the finish.


Give it a rating there please :D
Tap to rate this tab
# A B C D E F G H I J K L M N O P Q R S T U V W X Y Z