Song name
# A B C D E F G H I J K L M N O P Q R S T U V W X Y Z

Misc Unsigned Bands - Timshel - Under Your Spell Acoustic tab

Chords

Intro/Verse/Chorus

F - C - Am - F

Instrumental Part

F - C - G - F

0:50
E ---------------------------------------------------------------------------|
B ---------------------------------------------------------------------------|
G -----------------------------------------------------------9---------------|
D ----10--9--10------10--9-10------10--10--10--10--10--12--------------------|
A ---------------------------------------------------------------------------|
E ---------------------------------------------------------------------------|

x2

Third time a second guitar comes in, but you can play it on one like this:

1:10
E -------------------------------------------------------------------------|
B -------------------------------------------------------------------------|
G --9---7--9-----9---7--9------9----9--12--12---12--10--9---7--5-----------|
D --10--9-10---10--9-10----10--10--14--14--14--12--10--9--7----------------|
A -------------------------------------------------------------------------|
E -------------------------------------------------------------------------|

1:20
D ----10--9--10------10--9-10------10--10--10--10--10--9--5------------

1:30
E ----------------------------------------------------------------------------|
B ----------------------------------------------------------------------------|
G -------------------------------4--5--5--------------------------------------|
D -----------------------5---7------------------------------------------------|
A ---------5---7---8----------------------------------------------------------|
E ----8-----------------------------------------------------------------------|

2:15
E ---------------------------------------------12----------------------------|
B-----------------------------------13--10-----------------------------------|
G ----------7--5--9--7--10--9------------------------------------------------|
D ------7--------------------------------------------------------------------|
A ---------------------------------------------------------------------------|
E ---------------------------------------------------------------------------|

Loop until the end.
Tap to rate this tab
 
# A B C D E F G H I J K L M N O P Q R S T U V W X Y Z