Song name
# A B C D E F G H I J K L M N O P Q R S T U V W X Y Z

Misc Unsigned Bands - District 24 - Never Come Home tab

-------------------------------------------------------------------------------
                             NEVER COME HOME - District 24
-------------------------------------------------------------------------------
Tabbed by: THEDEVILSGUITAR
E-mail: handcart2@hotmail.com

Tuning: Standard

INTRO:
e|---------------------------------------------------------------------------------|
B|---------------------------------------------------------------------------------|
G|---------------------------------------------------------------------------------|
D|----+7---------------------------------------------------------------------------|
A|+7-------------------------------------------------------------------------------|
E|---------+7------X2--------------------------------------------------------------|


e|-----------------------------------------------------------------------------------|
B|-----------------------------------------------------------------------------------|
G|-----------------------------------------------------------------------------------|
D|---6---9---6---7-------------------------------------------------------------------|
A|-7---7---7---7---7----6---9---6-7----4---7---4-5---6---9---6-7---X2----------------|
E|--------------------7---7---7------5---5---5-----7---7---7-------------------------|
*** on the second time playing the intro, ring out this note:
e|-----------------------------------------------------------------------------|
B|-----------------------------------------------------------------------------|
G|-----------------------------------------------------------------------------|
D|-----------------------------------------------------------------------------|
A|-----------------------------------------------------------------------------|
E|-----0-----------------------------------------------------------------------|

Then play this while intro is going:
e|-----------------------------------------------------------------------------------|
B|-----------------------------------------------------------------------------------|
G|-9-------------------------8-------------------------------------------------------|
D|-9----9------7------9------8-------------------------------------------------------|
A|-7-x4-9------7------9------6-x1----------------------------------------------------|
E|------7-x4---5--x4--7--x4----------------------------------------------------------|
Verses 1&2: Palm muted
e|-----------------------------------------------------------------------------------|
B|-----------------------------------------------------------------------------------|
G|-9----------------------8----------------------------------------------------------|
D|-9-----9-----7----9-----8----------------------------------------------------------|
A|-7-x8--9-----7----9-----6-x1-------------------------------------------------------|
E|-------7-x8--5-x8-5-x8-------------------------------------------------------------|
Chorus: x2
e|--------------------------------------------------------------------------------------|
B|--------------------------------------------------------------------------------------|
G|-9------------------------------------------------------------------------------------|
D|-9-----7-----9----7-------------------------------------------------------------------|
A|-7-x8--7-----9----7-------------------------------------------------------------------|
E|-------5-x8--7-x8-5-x8----------------------------------------------------------------|
After playing that, play this: 2x
e|------------------------------------------------------------------------------------|
B|------------------------------------------------------------------------------------|
G|---------8----9---------------------------------------------------------------------|
D|---9-----8----9---------------------------------------------------------------------|
A|---9-----6-x1-7-x5------------------------------------------------------------------|
E|---7-x6-----------------------------------------------------------------------------|

e|--------------------------------------------------------------------------------|
B|--------------------------------------------------------------------------------|
G|---After that, you go back to verse 2 and then chorus and then bass plays here--|
D|------and then replay the chorus with this as second guitar: -------------------|
A|--------------------------------------------------------------------------------|
E|--------------------------------------------------------------------------------|

e|-----------6-7-7-7-7-7-7-------------------------------------------------------------|
B|-7-7-7-7-7---------------------------------------------------------------------------|
G|-------------------------------------------------------------------------------------|
D|-------------------------------------------------------------------------------------|
A|-------------------------------------------------------------------------------------|
E|-------------------------------------------------------------------------------------|
************************************

| /   slide up
| \   slide down
| h   hammer-on
| p   pull-off
| ~   vibrato
| +   harmonic
| x   Mute note
| b   Bend
| pb  Pre-bend
| br  Bend release
| pbr Pre-bend release
| brb Bend release bend

************************************
Tap to rate this tab
 
# A B C D E F G H I J K L M N O P Q R S T U V W X Y Z