Song name
# A B C D E F G H I J K L M N O P Q R S T U V W X Y Z

Misc Unsigned Bands - July Crisis - Till I Lost Control tab

I learned this by ear, so it might be not correct in 100%
They are new young band, so there is no tabs : C
I hope you like it ; )

If u guys want me to correct something, just send me an email.

email: pietruszka_96@o2.pl

-------------------------------------------------------------------------------
July Crisis - 'Til I Lost Control

Standard : EADGBe

-----
Intro: 0:00 - 0:46

Guitar 1. (repeat 6 times)
e---------------------------------------------------------------------------|
B---------------------------------------------------------------------------|
G-------------------------6-6-----6-6---------------------------------------|
D------6-6-----6-6----7-7-----7-7-----------6-6-----6-6--------4-4-----4-4--|
A--4-4-----4-4--------------------------7-7-----7-7--------6-6-----6-6------|
E---------------------------------------------------------------------------|

Guitar 2. (from 0:31)
e---------------------------------------------------|
B------------10-(10)--------------------------------|
G--6-(6)-----9--(9)-----9-(9)-----8-(8)-------------|
D--6-(6)-----7--(7)-----9-(9)-----6-(6)-------------|
A--4-(4)----------------7-(7)-----6-(6)-------------|
E---------------------------------------------------|

Verse 1,2,3.... & Chorus

e------------------------------------------------------------|
B--------------10-10--10-10-10-------------------------------|
G--6-6--6-6-6---9-9---9--9--9---9-9--9-9-9----8-8--8-8-8-----|
D--6-6--6-6-6---7-7---7--7--7---9-9--9-9-9----6-6--6-6-6-----|
A--4-4--4-4-4-------------------7-7--7-7-7----6-6--6-6-6-----|
E------------------------------------------------------------|

Bridge 2:04 - 2:35

e--------------------------------------------------------|
B--------------------------------------------------------|
G--6-6--6-6-6---9-9--9-9-9---4-4--4-4-4---2-2--2-2-2-----|
D--6-6--6-6-6---9-9--9-9-9---4-4--4-4-4---2-2--2-2-2-----| x2
A--4-4--4-4-4---7-7--7-7-7---2-2--2-2-2---0-0--0-0-0-----|
E--------------------------------------------------------|

e----------------------------     -------------------------|
B----------------------------     -------------------------|
G--4-4--4-4-4---2-2--2-2-2---]    -4-4--4-4-4---2~---------|
D--4-4--4-4-4---2-2--2-2-2---]x3  -4-4--4-4-4---2~---------|
A--2-2--2-2-2---0-0--0-0-0---]    -2-2--2-2-2---0~---------|
E----------------------------     -------------------------|

Then repeat chorus. 2:36-2:51

After that is Guitar 2 form Intro.. 2:52-3:07

And Guitar 1 (infro) till the end 3:08-...


------------------------------------
I'll try to write guitar from deep background. ASAP ; ))

=============================================================================
Tap to rate this tab
# A B C D E F G H I J K L M N O P Q R S T U V W X Y Z