Song name
# A B C D E F G H I J K L M N O P Q R S T U V W X Y Z

Misc Unsigned Bands - Megan D - Fighting For You tab

FIGHTING FOR YOU - Megan D
-------------------------------------------------------------------------------
Tabbed by: megan
E-mail: nnegan101@gmail.com

Tuning:

   Am                                                                                     F
e|------------------------------------------------|-------------------------------------|
B|-----------------------------1-------1-------1--|---------------------1----1---1------|
G|---------2-----2-----2--------------------------|------2---2----2---------------------|
D|-----2-------------------2-------2-------2------|---3--------------3-----3---3--------|
A|------------0-----0-----------------------------|-------0----0------------------------|
E|------------------------------------------------|-------------------------------------|
   C                                                               G
e|-----------------------------------|-------------------------------------------------|
B|-----------------------1----1---1--|--------------------3----3----3------------------|
G|-----0-----0----0------------------|-----0----0----0---------------------------------|
D|--2----------------2-----2----2----|---0--------------0---0----0---------------------|
A|--------3-----3--------------------|-------2----2------------------------------------|
E|-----------------------------------|-------------------------------------------------|

(all of the verses)

chorus:

Am
you can't rely on other people to make you happy
                                    F
cause they wont always be here
                C
you gotta find a way to make yourself happy
                          E
in a world that's not fair
         Am                                                               F
and it might sound sad and it might sound wrong
                C                                                         E
but if you find a way to make yourself happy people might play along
           Am                                               F
so go climb a hill go climb a tree cause as long as your climbing you'll see
                     C                                                        E
that there's much more to life than just relying on me
Am F C G
just relying on me
Tap to rate this tab
# A B C D E F G H I J K L M N O P Q R S T U V W X Y Z