Song name
# A B C D E F G H I J K L M N O P Q R S T U V W X Y Z

Misc Unsigned Bands - Jack And Jennys - Ou Tu Veux tab

-------------------------------------------------------------------------------
                           OU TU VUEX - Jack and Jenny's
-------------------------------------------------------------------------------
Tabbed by: Volcz
E-mail: volcom_1720@live.com - I created this email in case anyone finds any errors in 
my tabs.

Tuning: Standard

This is my first tab. A song by a small french duo "Jack and Jenny's". I'm not French 
but I am a Kooks fan, and these guys sound a lot like them! Great song!

The rhythm is easy to figure out, just listen to the song. It's pretty much the same 
throughout. The chords are just the same four over and over again.


INTRO/SOLO - LEAD GUITAR

e|-------------------------------------------------5s6--------------------------|
B|----------------------6----------------9---7-6---6s7------6h7p6---------------|
G|----------------------7-----------8s10--------------------------6--7v---------|
D|-------------7-10v----8-------------------------------------------------------|
A|----6-8s10--------------------------------------------------------------------|
E|--8---------------------------------------------------------------------------|


CHORDS - RHYTHM GUITAR
*The song is played in this order


      Dmin7         G#maj         C#          F#maj
e|------6-------------4------------x-------------2------------------------------|
B|------7-------------4------------x-------------2------------------------------|
G|------6-------------5------------6-------------3------------------------------|
D|------8-------------6------------6-------------4------------------------------|
A|------6-------------6------------4-------------4------------------------------|
E|------x-------------4----------- x-------------2------------------------------|


That's all it is! Super simple!
Enjoy


************************************

| /   slide up
| \   slide down
| h   hammer-on
| p   pull-off
| ~   vibrato
| +   harmonic
| x   Mute note
| b   Bend
| pb  Pre-bend
| br  Bend release
| pbr Pre-bend release
| brb Bend release bend

************************************
Tap to rate this tab
# A B C D E F G H I J K L M N O P Q R S T U V W X Y Z