Song name
# A B C D E F G H I J K L M N O P Q R S T U V W X Y Z

Misc Unsigned Bands - Spider - Orchid Fiend tab

      This is a song by my band,Spider.It's called Orchid fiend I hope u     
      like it. its easy as long as u can play it fast enough.

intro/bridge

E|----------------------------------------------|
B|----------------------------------------------|
G|----------------------------------------------|
D|----------------------------------------------|
A|--3-3-3-3-3--3-3-3-3-3--3-3-3-3-3--3-3-3-3-4--|
D|--3-3-3-3-3--3-3-3-3-3--3-3-3-3-3--3-3-3-3-4--|

verse

E|----------------------------------------------|
B|----------------------------------------------|
G|----------------------------------------------|
D|----------------------------------------------|
A|--3-3-3-3-3--3-3-3-3-3--3-3-3-3-3--3-3-3-3-1--|
D|--3-3-3-3-3--3-3-3-3-3--3-3-3-3-3--3-3-3-3-1--|

chorus

E|----------------------------------------------------------------------|
B|----------------------------------------------------------------------|
G|--5-5-5-5-5-5-5-5--4-4-4-4-4-4-4-4--7-7-7-7-7-7-7-7--8-8-8-8-8-8-8-8--|
D|----------------------------------------------------------------------|
A|--3-3-3-3-3-3-3-3--2-2-2-2-2-2-2-2--5-5-5-5-5-5-5-5--6-6-6-6-6-6-6-6--|
D|----------------------------------------------------------------------|

Structure

INTRO x2
VERSE x8
CHORUS x1
BRIDGE x2
VERSE x8
CHORUS x1
BRIDGE x2
CHORUS x2
Tap to rate this tab
# A B C D E F G H I J K L M N O P Q R S T U V W X Y Z