Song name
# A B C D E F G H I J K L M N O P Q R S T U V W X Y Z

Misc Unsigned Bands - Kindred - Dreaming tab

e]----------------------|  e]--777--555--777--333--|
B]----------------------|  B]--999--777--999--555--|
G]----------------------|  G]--999--777--999--555--|
D]---x--x-x--x-x--x-x-x-|  D]----------------------|
A]---x--x-x--x-x--x-x-x-|  A]----------------------|
E]---x--x-x--x-x--x-x-x-|  E]----------------------| (x2)

       
e]--777--------7-5-7-5-3-7----|
B]--999--7-7---9-7-9-7-5-9----|
G]--999--9-9---9-7-9-7-5-9----|
D]-------9-9------------------|
A]----------------------------|
E]----------------------------| 


      ......    ......    ......    .. .. .. .. ..
e]--77777777---5555555---3333333---222333555333222---|
B]--99777777---7555555---5333333---422533755533422---|
G]--99---------7---------5---------4--5--7--5--4-----|
D]---------------------------------------------------|
A]---------------------------------------------------|
E]---------------------------------------------------|
 
REST COMING SOON

e]-|
B]-|
G]-|
D]-|
A]-|
E]-|
Tap to rate this tab
# A B C D E F G H I J K L M N O P Q R S T U V W X Y Z