Song name
# A B C D E F G H I J K L M N O P Q R S T U V W X Y Z

Misc Unsigned Bands - Guttural Slug - Sirenens Kald tab

Tabbed by Hyks 8/10/2012

Artist: Guttural slug
Album: Megalodon
Song: Sirenens Kald


Tuning: Drop A
A, E, A, D, Gb, B


Slam 1
||----------------------------||
||----------------------------||
||----------------------------||
||-3-2-1~~~-2-1~~~-3-3-2-1~~~-||
||-3-2-1~~~-2-1~~~-3-3-2-1~~~-||
||-3-2-1~~~-2-1~~~-3-3-2-1~~~-||
   . .      .      . . . 


Main slam
||----------------------------------------||
||----------------------------------------||
||----------------------------------------||
||-3-2-1--2--1~~-3-2-1--2-3-2--1~~~----3*-||
||-3-2-1--2--1~~-3-2-1--2-3-2--1~~~-2*----||
||-3-2-1--2--1~~-3-2-1--2-3-2--1~~~-------||
   . . .  .      . . .  . . . 

Slam 3
||-------------------------|--------------------------||
||-------------------------|--------------------------||
||-------------------------|--------------------------||
||-0--1--2--1--3--2--3-2-1-|-0--1--2--1--3--2--3-2-1~-||
||-0--1--2--1--3--2--3-2-1-|-0--1--2--1--3--2--3-2-1~-||
||-0--1--2--1--3--2--3-2-1-|-0--1--2--1--3--2--3-2-1~-||
   .  .  .  .  .  .  . . .   .  .  .  .  .  .  . . 

Slam 4
||-----------------------------||
||-----------------------------||
||-----------------------------||
||-0--1--3--2--0--1-2-3-2-4~~~-||
||-0--1--3--2--0--1-2-3-2-4~~~-||
||-0--1--3--2--0--1-2-3-2-4~~~-||
   .  .  .  .  .  . . . .

Slam 5
||-----------------------------------|-----------------------------------||
||-----------------------------------|-----------------------------------||
||-----------------------------------|-----------------------------------||
||-0-1-2-0----0-4-3-0-1-2-0----0-4-3-|-0-1-2-0-3*-0-4-3-0-1-2-0-3*-0-4-3-||
||-0-1-2-0-3*-0-4-3-0-1-2-0-3*-0-4-3-|-0-1-2-0----0-4-3-0-1-2-0----0-4-3-||
||-0-1-2-0----0-4-3-0-1-2-0----0-4-3-|-0-1-2-0----0-4-3-0-1-2-0----0-4-3-||
   . . . .    . . . . . . .    . . .   . . . .    . . . . . . .    . . . 

Break
||---------------|---------------|---------------||
||---------------|---------------|---------------||
||---------------|---------------|---------------||
||-0~~~~~~~~~~~~-|-0~~~~~~~~~~~~-|-0-------------||
||-0~~~~~~~~~~~~-|-0~~~~~~~~~~~~-|-0-------------||
||-0~~~~~~~~~~~~-|-0~~~~~~~~~~~~-|-0-------------||


"Breakdown"/Slam 6
||-----------------------------------||
||-----------------------------------||
||-----------------------------------||
||-0--1--0--4-3--0-1-2-----0-1-2--1*-||
||-0--1--0--4-3--0-1-2--1*-0-1-2-----||
||-0--1--0--4-3--0-1-2-----0-1-2-----||
      .  .       . . .     . . .

Slow down
||-----------------------------------||
||-----------------------------------||
||-----------------------------------||
||-0--1--0--4-3--0-1-2-----0-1-2--4~-||
||-0--1--0--4-3--0-1-2--4~-0-1-2-----||
||-0--1--0--4-3--0-1-2-----0-1-2-----||
      .  .       . . .     . . .

End
||-----------||
||-----------||
||-----------||
||-0---------||
||-0---------||
||-0---------||


Song structure:
Intro
Slam 1 x2
Main slam x6
Slam 3 x4
Slam 4 x2
Main slam x2
Slam 5 x2
Break x1
"Breakdown" x5
Slow down x4
End x1

Legend:
* - Pinch harmonic
. - Palm mute
~ - Hold note
Tap to rate this tab
# A B C D E F G H I J K L M N O P Q R S T U V W X Y Z