Song name
# A B C D E F G H I J K L M N O P Q R S T U V W X Y Z

Misc Unsigned Bands - El Michels Affair - Cream tab

-----------------------------------------------------------------------------
Artist: El Michels Affair
Album:  Enter The 37th Chamber [2009]
Title:  C.R.E.A.M.
-----------------------------------------------------------------------------

Tuning: Standard

Part I:
e|-----------7--9------9---7h9h7---------------------|
B|--------7-----------------------7------------------|
G|-----7-----------------------------7---------------|
D|--9------------------------------------------------|
A|---------------------------------------------------|
E|---------------------------------------------------|

Part II:
e|---------14-----9--------------12----9-------------|
B|---------14-----9--------------12----9-------------|
G|---------14-----9--------------12----9-------------|
D|--9s11------------------9s11-----------------------|
A|--7s9-------------------7s9------------------------|
E|---------------------------------------------------|

/Improv./

to 00.30:
e|---------14-----9------------------------------12----9--------------------|
B|---------14-----9---10h12h10-10----------------12----9----------10--------|
G|---------14-----9---------------9--------------12----9--------9-----------|
D|--9s11----------------------------11----9s11---------------11-------------|
A|--7s9-----------------------------------7s9--------------9----------------|
E|--------------------------------------------------------------------------|

to 1.00:
e|--7-----7-----7-----7------------------|
B|--7-----7-----7-----7------------------|
G|--7-----7-----7-----7--------etc.------|
D|---------------------------------------|
A|---------------------------------------|
E|---------------------------------------|

to 1.39:
e|--------14-----9----------------------------------12----9-----------------|
B|--------14-----9---10h12--10h12h10----------------12----9-----------------|
G|--------14-----9-------------------9--------------12----9-----------------|
D|-9s11--------------------------------11----9s11------------------7--------|
A|-7s9---------------------------------------7s9-------------5s7-9----------|
E|--------------------------------------------------------------------------|

************************************

| s   slide
| h   hammer-on

************************************

Tabbed by: EA
Tap to rate this tab
# A B C D E F G H I J K L M N O P Q R S T U V W X Y Z