Song name
# A B C D E F G H I J K L M N O P Q R S T U V W X Y Z

Misc Unsigned Bands - Reflections - And Found tab

-------------------------------------------------------------------------------
                             ...AND FOUND - Reflections
-------------------------------------------------------------------------------
Tabbed by: BoomBoyBooms (GhHolocaust on YouTube)
E-mail: sasuke-uchiha@live.co.uk

Tuning: Standard (EADGBe)

The song itself is in Drop F on a 7 string (FCFA♯D♯GC)so when my seven
string arrives I may tab that out for you guys aswell. Enjoy!

ALSO yes it may look different than what Patrick plays on the playthrough video of
this but both the tunings and techniques are different. :)



e|--------------------------------------------------------------------------|
B|-------------------------------/9~--13~--11~--9~--8~--8/9-8brb----------8-|
G|---------------------/8~--12~-----------------------------------8-8/10--8-|
D|-----------/6~--10~-------------------------------------------------------|
A|--/4~--8~-----------------------------------------------------------------|
E|--------------------------------------------------------------------------|

e|-------------------------------------15-11-13-15/16-15-11-----------------|
B|-9-8/9-8------9-11-11b13~--/14-11-13----------------------9~--6-8-9-8-----|
G|---------8-10-------------------------------------------------------------|
D|--------------------------------------------------------------------------|
A|--------------------------------------------------------------------------|
E|--------------------------------------------------------------------------|
                                    Yes, it's all picked.
e|---------------------------------|----------------------------------------|
B|---6-----------------------------|--------------------------------4-6-8---|
G|-8-------------------------------|-3-5-7-5-3-----------3-5-7-5-3-5--------|
D|-----8~---------3-5-6-------3-5-6|-----------6-5-3-5-6--------------------|
A|----------3-5-6-------3-5-6------|----------------------------------------|
E|---------------------------------|----------------------------------------|

e|----------------------------4-6-8-6-4-------6-8-9-8-6-------8-9-11-9-8----|
B|--6-4-----------4-6-8-6-4-6-----------8-6-4-----------9-8-6---------------|
G|------7-5-3-5-7-----------------------------------------------------------|
D|--------------------------------------------------------------------------|
A|--------------------------------------------------------------------------|
E|--------------------------------------------------------------------------|
                               x10 x2 x4  x2  x4    x3
e|---------6-8-9-8-6-------|---8t--9t-----11t-------------------------------|
B|--11-9-8-----------9-8-6-|----------11t-----8t-9t-------------------------|
G|-------------------------|------------------------12t---8-8brb------------|
D|-------------------------|------------------------------------------------|
A|-------------------------|------------------------------------------------|
E|-------------------------|------------------------------------------------|
    x3 x3 x2   x3 x3 x2   x3  x3  x2  x3  x3 x2     SWEEP SECTION
e|------------------------16t-15t-11t------------|-16-13----------13-16-13--|
B|--8t-9t-11t-13t-14t-13t-------------14t-13t-9t-|-------14----14-----------|
G|-----------------------------------------------|----------13--------------|
D|-----------------------------------------------|--------------------------|
A|-----------------------------------------------|--------------------------|
E|-----------------------------------------------|--------------------------|

e|-----------------------------13-16-13-------------18-15----------15-18-15-|
B|--14----------------------14----------14----------------16----16----------|
G|-----13----------------13----------------13----------------15-------------|
D|--------15----------15----------------------15----------------------------|
A|-----------16-16-16----------------------------16-------------------------|
E|--------------------------------------------------------------------------|
                                                       T
e|-----------------------------15-18-15-------------|-16p15p11--------------|
B|--16----------------------16----------16----------|-----------h13p11------|
G|-----15----------------15----------------15-------|-----------------------|
D|--------17----------17----------------------17----|-----------------------|
A|-----------18-18-18----------------------------18-|-----------------------|
E|--------------------------------------------------|-----------------------|
                                                 T      T       T
e|-------------------------------------------|------------------------------|
B|-------------------------------------------|-9-21-9-----------------------|
G|--h12p10-----------/12---------------------|--------8-20-8----------------|
D|---------h13p11p10-----13--10-8-6-5-/13-10-|---------------10-22-10-------|
A|-------------------------------------------|------------------------------|
E|-------------------------------------------|------------------------------|
        T
e|--------------------------------------------------------------------------|
B|--------------------------------------------------------------------------|
G|--------------------------------------------------------------------------|
D|-----------------10-------------------------------------------------------|
A|--11-23-11--8-11----------------------------------------------------------|
E|--------------------------------------------------------------------------|

************************************

| /   slide up
| \   slide down
| h   hammer-on
| p   pull-off
| t   tremolo pick
| ~   hold note
| +   harmonic
| x   Mute note
| b   Bend
| pb  Pre-bend
| br  Bend release
| pbr Pre-bend release
| brb Bend release bend
| T (above) tap

************************************
Tap to rate this tab
 
# A B C D E F G H I J K L M N O P Q R S T U V W X Y Z