Song name
# A B C D E F G H I J K L M N O P Q R S T U V W X Y Z

Misc Unsigned Bands - A Well Thought Tragedy - Closed And Locked tab

Intro
|--------------------------------|
|--------------------------------|
|---10---10---10---10-9--3-------|
|---x----x----x----x--x--x-------|
|---8----8----8----8--7--5-------|
|--------------------------------|

|--------------------------------|
|--------------------------------|
|---14---14---14---14-12-11------|
|---x----x----x----x--x--x-------|
|---12---12---12---12-10-9-------|
|--------------------------------|
Chorus 1 (x2)
|--------------------------------------------------------|
|--------------------------------------------------------|
|--------------------------------------------------------|
|--------------------------------------------------------|
|----8-5-3------0h3-5h7p5~----5-----7----8-10-12-10-8~---|
|--00-0-0-0-0-0-------------55-5--77-7-88----------------|
   * * * * * * *            ** *  ** * **
Chorus 2 (x2)
|--------------------------------------------------------|
|--------------------------------------------------------|
|--------------------------------------------------------|
|--------------------------------------------------------|
|----8-5-3-----0h3-5h7p5~------8-5-3-10-8-7-8------------|
|--00-0-0-0-0-0--------------00-0-0-0--0-0-0-0-----------|
   ** * * * * *              ** * * *  * * * *
Chorus 1 (x2)
|--------------------------------------------------------|
|--------------------------------------------------------|
|--------------------------------------------------------|
|--------------------------------------------------------|
|----8-5-3------0h3-5h7p5~----5-----7----8-10-12-10-8~---|
|--00-0-0-0-0-0-------------55-5--77-7-88----------------|
   * * * * * * *            ** *  ** * **
Breakdown 1 (x2 except first 3 power chords)
|-----------------------------------------------------------|
|-----------------------------------------------------------|
|-----------------------------------------------------------|
|-8~---5~-3-------------------------------------------------|
|-8~---5~-3---0-0-0-0---0--0-0-0-0--0-0-0-0--0-0-0-0--0-0-0-|
|-8~---5~-3---0-0-0-0---0--0-0-0-0--0-0-0-0--0-0-0-0--0-0-0-|
              * * * *   *  * * * *  * * * *  * * * *  * * *
|--------------------------------------------|
|--------------------------------------------|
|--12-------12-10-9--------------------------|
|--x--------x--x--x--------------------------|
|--10-0-0-0-10-8--7--------------------------|
|-----0-0-0----------------------------------|
      * * *
|------------------------------------------------|
|------------------------------------------------|
|------------------------------------------------|
|------------------------------------------------|
|--0-0-0-0---0--0-0-0-0--0-0-0-0--0-0-0-0--0-0-0-|
|--0-0-0-0---0--0-0-0-0--0-0-0-0--0-0-0-0--0-0-0-|
   * * * *   *  * * * *  * * * *  * * * *  * * *
|------------------|
|------------------|
|------------------|
|-8-------8-5-3----|
|-8-0-0-0-8-5-3----|
|-8-0-0-0-8-5-3----|
    * * *
Mini Solo (x2)
|---------9--------------------------|
|--7h9-7h9-9-7h9-7p5-5p4-4h5-2h3-----|
|------------------------------------|
|------------------------------------|
|------------------------------------|
|------------------------------------|

|---------9-----11p9-7p5-5p4-4h5--|
|--7h9-7h9-9-7h9------------------|
|---------------------------------|
|---------------------------------|
|---------------------------------|
|---------------------------------|

|---------9--------------------------|
|--7h9-7h9-9-7h9-7p5-5p4-4h5-2h3-2~--|
|------------------------------------|
|------------------------------------|
|------------------------------------|
|------------------------------------|

Chorus 1 (x2)
|--------------------------------------------------------|
|--------------------------------------------------------|
|--------------------------------------------------------|
|--------------------------------------------------------|
|----8-5-3------0h3-5h7p5~----5-----7----8-10-12-10-8~---|
|--00-0-0-0-0-0-------------55-5--77-7-88----------------|
   ** * * * * *             ** *  ** * **
Chorus 2 (x2)
|--------------------------------------------------------|
|--------------------------------------------------------|
|--------------------------------------------------------|
|--------------------------------------------------------|
|----8-5-3-----0h3-5h7p5~------8-5-3-10-8-7-8------------|
|--00-0-0-0-0-0--------------00-0-0-0--0-0-0-0-----------|
   ** * * * * *              ** * * *  * * * *
Breakdown 2 part 1
|-------------------------------------------|
|------------11----------------11-----------|
|------------14----------------14-----------|
|-------------------------------------------|
|---00000000----000---00000000----0-0-------|
|---00000000----000---00000000----0-0-------|
    ********    ***   ********    * *
Breakdown 2 part 2 (x2)
|-----------------------------------|
|------------11-----11-----11-------|
|------------14-----14-----14-------|
|-----------------------------------|
|---00000000----000----0-0----0-0---|
|---00000000----000----0-0----0-0---|
    ********    ***    * *    * *
|-----------------------------|
|------------11---------------|
|------------14---------------|
|-----------------------------|
|---00000000----0-0---0000----|
|---00000000----0-0---0000----|
    ********    * *   ****
Breakdown 3 (x2)
|------10----10----10----10----10----10----10----10---|
|---14----14----14----14----14----14----14----14------|
|-----------------------------------------------------|
|-----------------------------------------------------|
|-----------------------------------------------------|
|-----------------------------------------------------|

|--------------------------------------|
|--------------------------------------|
|--------------------------------------|
|--------------------------------------|
|--000000000--000--0-0--0-0------------|
|--000000000--000--0-0--0-0------------|
   *********  ***  * *  * *
|--------------------------------------|
|--------------------------------------|
|--------------------------------------|
|--------------------------------------|
|--000000000--0-0-00000----------------|
|--000000000--0-0-00000----------------|
   *********  * * *****


|------10----10----10----10----10----10----10----10---|
|---14----14----14----14----14----14----14----14------|
|-----------------------------------------------------| (4x)
|-----------------------------------------------------|
|-----------------------------------------------------|
|-----------------------------------------------------|

Mini Solo (x4)
|---------9--------------------------|
|--7h9-7h9-9-7h9-7p5-5p4-4h5-2h3-----|
|------------------------------------|
|------------------------------------|
|------------------------------------| \
|------------------------------------|  \
                                       (Palm Muted 1st time)
|---------9-----11p9-7p5-5p4-4h5--|     /
|--7h9-7h9-9-7h9------------------|    /
|---------------------------------|
|---------------------------------|
|---------------------------------|
|---------------------------------|

|---------9--------------------------|
|--7h9-7h9-9-7h9-7p5-5p4-4h5-2h3-2~--|
|------------------------------------|
|------------------------------------|
|------------------------------------|
|------------------------------------|

Breakdown 4 (x2)
|---------------------------------|
|---------------------------------|
|---------------------------------|
|---------------------------------|
|--0--0--0--0--00000--------------|
|--0--0--0--0--00000--------------|

Breakdown 5 (2x)
|---------------------------------|
|---------------------------------|
|---------------------------------|
|---------------------------------|
|--0~-0~-0~-0~-00000~-------------|
|--0~-0~-0~-0~-00000~-------------|
   *  *  *  *  *****
Outro
|---------------------------------------------------------|
|--12-----12-----14------14-------------------------------|
|--14b----14b----14b-----14b------------------------------|
|---------------------------------------------------------|
|-----0-0----0-0-----0-0----0-0---00000-------------------|
|-----0-0----0-0-----0-0----0-0---00000-------------------|
      * *    * *     * *    * *   *****
|---------------------------------|
|---------------------------------|
|---------------------------------|
|---------------------------------|
|--0--0--0--0--00000---0----------|
|--0--0--0--0--00000---0----------|
   *  *  *  *  *****   *



Legend:
*   palm mute
b   bend
h   hammer-on
p   pull-off
x   mute
~   let ring
Tap to rate this tab
# A B C D E F G H I J K L M N O P Q R S T U V W X Y Z