Song name
# A B C D E F G H I J K L M N O P Q R S T U V W X Y Z

Misc Unsigned Bands - Aj Lalonde - Inject The Poison tab

Intro:
-----------------------------------------|
-----------------------------------------|
-----------------------------------------| X2
-----------------------------------------|
-----------------------------------------|
0-00-7-0-00-5-0-00-7-0-00-3/5------------|
pm.... pm.... pm...  pm...

Main Riff (Verse):
-------------------------------------------------|
-------------------------------------------------|
-------------------------------------------------| X4
-------------------------------------------------|
-------------------------------------------------|
0-0-0-0-0-0-8p7-8p7-0-0-0-0-0-0-2~~--------------|
pm.............     pm............

Verse 1 (same as Main Riff):
-------------------------------------------------|
-------------------------------------------------|
-------------------------------------------------| X4
-------------------------------------------------|
-------------------------------------------------|
0-0-0-0-0-0-8p7-8p7-0-0-0-0-0-0-2~~--------------|
pm.............     pm............

Pre-Chorus:
-----------------------------------------|
-----------------------------------------|
-----------------------------------------| X2
-----------------------------------------|
-----------------------------------------|
0-00-7-0-00-5-0-00-7-0-00-3/5------------|
pm.... pm.... pm...  pm...

Chorus:
----------------------------|
----------------------------|
----------------------------| X4
----------------------------|
----------------------------|
0-00-3h5p3-0-00-2/3---------|

Verse 2 ( same as verse 1)
Pre chorus
Chorus
Riff 2 ( same as chorus, just palm muted)
Riff 3:
---------------------------------------------------|
---------------------------------------------------|
---------------------------------------------------| X2
---------------------------------------------------|
---------------------------------------------------|
0-7-7777-5-5555-3-3333-2-2-0-2-2/7-----------------|
Tap to rate this tab
# A B C D E F G H I J K L M N O P Q R S T U V W X Y Z