Song name
# A B C D E F G H I J K L M N O P Q R S T U V W X Y Z

Misc Unsigned Bands - Aj Lalonde - Bullsht chords

Highlighted       Show chord diagrams
---------------------------|
----1-----1-----1-----1----|
---2-2---2-2---0-0---0-0---|
--2---2-2---2-2---2-2---2--|
-0-----0-----3-----3-----3-|
---------------------------|

---------------------------|
----0-----0-----0-----0----|
---0-0---0-0---0-0---0-0---|
--2---2-2---2-2---2-2---2--|
-2-----2-----2-----2-----2-|
---------------------------|

-----2-------2-------0-------0-----|
----3-3-----3-3-----1-1-----1-1----|
---2---2---2---2---2---2---2---2---|
--0-----0-0-----0-3-----3-3-----3--|
-----------------------------------|
-----------------------------------|
A.
I was so lonely
                 C.
But then I found you
        E.
You told me you loved me
                     G.
But then you threw me the shoe
        D.
You threw me out in the gutter
        F#7
You left me out on the pouring rain
                 A.
But it was just bullsh*t

Chorus:
A.
It was bullsh*t
C.
It was bullsh*t
E.
You told me you loved me
             D.
But you threw me out in the gutter
                       F#7
Left me out in the pouring rain

A.
Now this is over
C.
I spend my days
               E.
With the pain that you left me
        G.
That just wont go away
        D.
You threw me out in the gutter
                      F#7
Left me out in the pouring rain
                 A.
But it was all bullsh*t

Then chorus again
Then intro
Then solo (tabbed soon)
Chorus
Intro x4
End
This is a song i wrote
Tap to rate this tab
# A B C D E F G H I J K L M N O P Q R S T U V W X Y Z