Song name
# A B C D E F G H I J K L M N O P Q R S T U V W X Y Z

Misc Unsigned Bands - Jeremy Passion - 32 tab

I transcribed this by ear and by watching his live videos on youtube. I'm pretty sure 
this is accurate! Feel free to give some feedback, since this is my first time making and 
transcribing a guitar tab. :)

Album: For More Than a Feeling

PLAYED ON CAPO 3

Intro AND Verse:

e|---x----x----x-------|
B|---x----x----x-------|
G|---2----2----1-------|
D|---4----4----4-------|
A|---4----3----2-------|
E|---------------------|

Pre-Chorus:

e|---0---x-x-x---0------0---4-4-4---x---x---|
B|---0---5-5-5---0------0---4-4-4---4---4---|
G|---6---5-5-5---1------6---5-5-5---4---3---|
D|---6---4-4-4---2------6---4-4-4---2---2---|
A|---0---5-5-5---2------0---6-6-6---4---x---|
E|---x---x-x-x---0------x---4-4-4---x---2---|

Chorus:

e|---0------0------0------0------0------0------0------0---|
B|---0------0------0------0------0------0------0------0---|
G|---1------1------1------6------1------1------1------5---|
D|---2------1------0------6------2------1------0------5---|
A|---2------2------2------0------2------2------2------0---|
E|---0------0------0------x------0------0------0------x---|

e|---0---0---------------------|
B|---0---0---------------------|
G|---2---2---------------------|
D|---2---2---------------------|
A|-------2---------------------|
E|---2---x---------------------|

Bridge:

e|---0---0---0----|
B|---0---0---0----|
G|---2---4---6----|       x2
D|---2---4---6----|
A|---x---x---x----|
E|---2---4---5----|

e|---0-0--0-0--0-0-----0---0---0|
B|---0-0--0-0--0-0-----0---0---0|
G|---2-2--4-4--6-6-----2---4---5|
D|---2-2--4-4--6-6-----2---4---5|
A|---x-x--x-x--x-x-----x---x---x|
E|---2-2--4-4--5-5-----2---4---5|

Chorus + Ending:

e|---0---0---0---0------0---0---0---0---|
B|---0---0---0---0------0---0---0---0---|
G|---1---1---1---6------1---1---1---5---|
D|---2---1---0---6------2---1---0---5---|
A|---2---2---2---0------2---2---2---0---|
E|---0---0---0---x------0---0---0---x---|

e|---0---0-0-0---0---x---0---0-------|
B|---0---0-0-0---0---3---0---0-------|
G|---2---2-2-2---4---4---2---2-------|
D|---2---2-2-2---4---3---2---2-------|
A|-------2-2-2---x---4---x---2-------|
E|---2---x-x-x---4---x---2---x-------|

Song Structure:
- Intro
- Verse
- Pre-Chorus
- Chorus
- Intro
- Verse
- Pre-Chorus
- Chorus
- Bridge
- Chorus + Ending


Official website: www.jeremypassion.com
Tap to rate this tab
# A B C D E F G H I J K L M N O P Q R S T U V W X Y Z