Song name
# A B C D E F G H I J K L M N O P Q R S T U V W X Y Z

Misc Unsigned Bands - Ego Ft Robert Burian - Zijeme Len Raz tab

-------------------------------------------------------------------------------
                             ZIJEME LEN RAZ - Ego ft. Robert Burian
-------------------------------------------------------------------------------
Tabbed by: Lukky Sixx!
Lesson: http://www.youtube.com/watch?v=gdVEBho50HM&feature=plcp

Tuning: Drop C

INTRO
D|---------------------------------------------------------------------------|
A|---------------------------------------------------------------------------|
F|---4-4-4-4-----------4-4-4-4--7-7------------------------------------------|
C|-----------5-5-7-7----------------5-5-5h7----------------------------------|  2x 
G|---------------------------------------------------------------------------|
C|---------------------------------------------------------------------------|

D|---------------------------------------------------------------------------|
A|---------------------------------------------------------------------------|
F|----4-4-4-4----------------------------------------------------------------|
C|------------5-5-7~-7~-7~-7~------------------------------------------------|
G|---------------------------------------------------------------------------|
C|---------------------------------------------------------------------------|

Verse

D|-----------------------------------------------|
A|--------------8--------------------------------|
F|---9----5-----7-----7--------------------------|
C|---9----5-----5-----7--------------------------|  2x
G|---7----3-----------5--------------------------|
C|-----------------------------------------------|

Pre-Chorus
D|------------------------------------------------------------------------|
A|-----------------------------------8r-8r-8r-8r--------------------------|
F|---9r-9r-7r-7r---5r-5r-5r-5r-------7r-7r-7r-7r-------7r-7r-7r-7r--------|
C|---9r-9r-7r-7r---5r-5r-5r-5r-------5r-5r-5r-5r-------7r-7r-7r-7r--------| 
G|---7r-7r-7r-7r---3r-3r-3r-3r-------------------------5r-5r-5r-5r--------|
C|------------------------------------------------------------------------|

Chorus
D|-------------------------------------------------------------|
A|----------------------8(8x)----------------------------------|
F|---9(8x)----5(8x)-----7(8x)-----7(8x)------------------------|
C|---9(8x)----5(8x)-----5(8x)-----7(8x)------------------------|  4x
G|---7(8x)----3(8x)---------------5(8x)------------------------|
C|-------------------------------------------------------------|


Verse

D|--------------------------------------------------------------|
A|--------------8-----------------------------------------------|
F|---9----5-----7-----7-----------------------------------------|
C|---9----5-----5-----7-----------------------------------------|  3x
G|---7----3-----------5-----------------------------------------|
C|--------------------------------------------------------------|

Pre-Chorus
D|------------------------------------------------------------------------|
A|---------------------------------8r-8r-8r-8r----------------------------|
F|---9r-9r-7r-7r---5r-5r-5r-5r-----7r-7r-7r-7r-------7+-7+-7+-7+----------|
C|---9r-9r-7r-7r---5r-5r-5r-5r-----5r-5r-5r-5r-------7+-7+-7+-7+----------| 
G|---7r-7r-7r-7r---3r-3r-3r-3r-----------------------5+-5+-5+-5+----------|
C|---------------------------------------------------0+-0+-0+-0+----------|

Chorus
D|--------------------------------------------------------------|
A|----------------------8(8x)-----------------------------------|
F|---9(8x)----5(8x)-----7(8x)-----7(8x)-------------------------|
C|---9(8x)----5(8x)-----5(8x)-----7(8x)-------------------------|  4x
G|---7(8x)----3(8x)---------------5(8x)-------------------------|
C|--------------------------------------------------------------|

Verse
D|--------------------------------------------------------------| 
A|--------------8-----------------------------------------------|
F|---9----5-----7-----7-----------------------------------------|
C|---9----5-----5-----7-----------------------------------------|  2x
G|---7----3-----------5-----------------------------------------|

Break
D|------------------------------------------------------------------------|
A|---------------------------------8r-8r-8r-8r----------------------------|
F|---9r-9r-7r-7r---5r-5r-5r-5r-----7r-7r-7r-7r-------7r-7r-7r-7r----------|
C|---9r-9r-7r-7r---5r-5r-5r-5r-----5r-5r-5r-5r-------7r-7r-7r-7r----------| 
G|---7r-7r-7r-7r---3r-3r-3r-3r-----------------------5r-5r-5r-5r----------|
C|------------------------------------------------------------------------|

D|-------------------------------------------------------------------------|
A|---------------------------------8r-8r-8r-8r-----------------------------|
F|---9r-9r-7r-7r---5r-5r-5r-5r-----7r-7r-7r-7r--------7+-7+-7+-7+----------|
C|---9r-9r-7r-7r---5r-5r-5r-5r-----5r-5r-5r-5r--------7+-7+-7+-7+----------| 
G|---7r-7r-7r-7r----3-3r-3r-3r------------------------5+-5+-5+-5+----------|
C|----------------------------------------------------0+-0+-0+-0+----------|

Chorus
D|------------------------------------------------------------------------|
A|---------------------------------8r-8r-8r-8r----------------------------|
F|---9r-9r-7r-7r---5r-5r-5r-5r-----7r-7r-7r-7r-------7r-7r-7r-7r----------|
C|---9r-9r-7r-7r---5r-5r-5r-5r-----5r-5r-5r-5r-------7r-7r-7r-7r----------| 
G|---7r-7r-7r-7r---3r-3r-3r-3r-----------------------5r-5r-5r-5r----------|
C|------------------------------------------------------------------------| 

D|-------------------------------------------------------------|
A|----------------------8(8x)----------------------------------|
F|---9(8x)----5(8x)-----7(8x)-----7(8x)------------------------|
C|---9(8x)----5(8x)-----5(8x)-----7(8x)------------------------|  2x
G|---7(8x)----3(8x)---------------5(8x)------------------------|
C|-------------------------------------------------------------|

End on
D|--------|
A|--------|
F|---9~---|
C|---9~---|
G|---7~---|
C|--------|

************************************

| /   slide up
| \   slide down
| h   hammer-on
| p   pull-off
| r   rest 
| ~   vibrato
| +   Natural harmonic
| x   Mute note
| b   Bend
| pb  Pre-bend
| br  Bend release
| pbr Pre-bend release
| brb Bend release bend

************************************
Tap to rate this tab
 
# A B C D E F G H I J K L M N O P Q R S T U V W X Y Z