Song name
# A B C D E F G H I J K L M N O P Q R S T U V W X Y Z

Misc Unsigned Bands - Legacy - A Well Thought Tragedy tab

Legacy Guitar 3

Chorus
|------------------------|
|------------------------|
|------------------------|
|------------------------|      x2
|--0~----8~----3~----5~--|
|--0~----8~----3~----5~--|

|--------------|
|--------------|
|--------------|
|-----/19\-----|
|-----/19\-----|

Breakdown
|------------------------------------------------------------------|
|------------------------------------------------------------------|
|------------------------------------------------------------------|
|------------------------------------------------------------------|    x1
|--0000000--00000--8888888--88888--3333333--33333--5555555--55555--|
|--0000000--00000--8888888--88888--3333333--33333--5555555--55555--|
   *******  *****  *******  *****  *******  *****  *******  *****
|-----------------------------------|
|-----------------------------------|
|-----------------------------------|
|--0~---2-3~---5-7~---8-5~---3--2~--|   
|-----------------------------------|
|-----------------------------------|

Chorus
|------------------------|
|------------------------|
|------------------------|
|------------------------|      `x1
|--0~----8~----3~----5~--|
|--0~----8~----3~----5~--|

Outro
|-----------------------------------|
|-----------------------------------|
|-----------------------------------|   x1
|--0~---2-3~---5-7~---8-5~---3--2~--|   
|-----------------------------------|
|-----------------------------------|

Legend
~   let ring
*   palm mute
/   slide up
\   slide down
Tap to rate this tab
# A B C D E F G H I J K L M N O P Q R S T U V W X Y Z